MUZBANK



A MOST COMPLETE BANK OF MUSIC INFORMATION

МУЗЫКАЛЬНО-ИНФОРМАЦИОННЫЙ БАНК







    ZZombie Rob • Meet The Creeper (аккорды и текст - chords & lyrics)


    232

    Print

    Видео «Meet The Creeper (Zombie Rob)»

    Видео клипы к песне подбираются автоматически сайтом youtube. Возможны некоторые несоответствия клипов песне.

    ↑ Спрятать рекламу ↑






     
    
    
    Rob Zombie - Meet The Creeper
    Tabbed By: Myke
    EMail: A_Violet_Fluid@hotmail.com
    
    Drop D Tuning (Transposed To C)
    
    Intro:
    
    |------------------------------------|
    |------------------------------------|
    |------------------------------------|
    |----------5------------4---------3--|
    |--2--2-2--5----2--2-2--4----2-2--3--|
    |--2--2-2--5----2--2-2--4----2-2--3--|
    
    Verse:
    
    |---------|
    |---------|
    |---------|
    |---------|
    |--2-2-2--|
    |--2-2-2--| (Etc)
       .....
    
    Chorus:
    
    |-------------|
    |-------------|
    |-------------|
    |-------------|
    |--0-0-0-0-6--|
    |--0-0-0-0-6--| (x4)
    
    A_Violet_Fluid@hotmail.com
    2OO2
    
    ===========
    
    
              Tabbed By: Mike Gagnon
              Meet The Creeper
              Rob Zombie
              From: Hell Billy Deluxe
              
              Tune From low to high (CGCFAD)
              
              Intro
              
              D------------------------
              A------------------------
              F------------------------
              C--2-2-2-5-2-2-2-4-2-2-3-
              G--2-2-2-5-2-2-2-4-2-2-3-
              C--2-2-2-5-2-2-2-4-2-2-3-
              
              Verse
              
              D--------
              A--------
              F--------
              C--2-2-2-
              G--2-2-2-
              C--2-2-2-
              
              Chorus
              
              D------------
              A------------
              F------------
              C-0-0-0-0-6~-
              G-0-0-0-0-6~-
              C-0-0-0-0-6~-
              
              Done, Done, and Done. Just listen to the song to place the parts to the song
     

    Тональность:

    Это должно быть в ТОП-листе! - Топ-лист композиций



    Назад
    Рекомендуем посмотреть другие песни исполнителя «Zombie Rob»:

    • Комменты Fb ()
    • Комменты ВК



    Добавить в Избранное Браузера
    Сохранить здесь Очистить


    x

    0


    +
    -

    +
    -

    -

    Авторизация





    Зарегистрироваться

    M

    Дата и время

    • 15:57:18
       

    Социальные ссылки


    Наши приложения

    • Muzbank App Play Market
    • Muzbank Amazon App