MUZBANK



A Most Complete Bank Of Music Information

МУЗЫКАЛЬНО-ИНФОРМАЦИОННЫЙ БАНК

Поиск по сайту







    ЗЗвуки Му • Шуба дуба блюз (аккорды и текст - chords & lyrics)


    764

    Print

    Видео «Шуба дуба блюз (Звуки Му)»

    Видео клипы к песне подбираются автоматически сайтом youtube. Возможны некоторые несоответствия клипов песне.

    ↑ Спрятать рекламу ↑



    Download



    Riff 1
    E|----------------------------|
    B|----------------------------|
    G|----------------------------|
    D|----------------------------|
    A|-------2---2-1-0------------|
    E|--0-3---0--------3-3-5-2-0--|
    
    Riff 2
    E|----------------------------|
    B|----------------------------|
    G|----------------------------|
    D|-------2---2-1-0------------|
    A|--0-3---0--------3-3-5-2-0--|
    E|----------------------------|
    
    Riff  3
    E|-------------------------------------------------------|
    B|-------------------------------------------------------|
    G|-------------------------------------------------------|
    D|-------------------------------------------------------|
    A|-2-2-5-5-2-0-0-3-3-0-2-1-0-----2---2-1-0-2-2-2-5-2-0-2-|
    E|---------------------------0-3---0---------------------|
    
    Intro: H, A7, E
    
    Riff 1
    Проснулся я ночью, часа в 2
    Riff 1
    И сразу понял: ты ушла от меня
    Riff 2
    Ну и что? Ну и что,
    Riff 1
    Что ты ушла от меня...
    Riff 3
    Всё равно - опять напьюсь.
    Шуба-дуба (подумал я) блюз!
    

    Тональность:

    Нет текста!



    Назад
    Рекомендуем посмотреть другие песни исполнителя «Звуки Му»:

    • Комментарии Facebook ()
    • Комментарии ВКонтакте



    Добавить в Избранное Браузера
    Сохранить здесь Очистить


    x

    0


    +
    -

    +
    -

    -

    Авторизация





    Зарегистрироваться

    M

    Дата и время

    • 22:50:01
       

    Социальные ссылки


    Наши приложения

    • Muzbank App Play Market
    • Muzbank Amazon App