MUZBANK



A Most Complete Bank Of Music Information

МУЗЫКАЛЬНО-ИНФОРМАЦИОННЫЙ БАНК

Поиск по сайту







    ZZZ Top • Burger Man (аккорды и текст - chords & lyrics)


    257

    Print

    Видео «Burger Man (ZZ Top)»

    Видео клипы к песне подбираются автоматически сайтом youtube. Возможны некоторые несоответствия клипов песне.

    ↑ Спрятать рекламу ↑



    Download


    ---------------|-------------|--------------|-----------|-------------|
    -6h8--8--------|-----------6-|-6H8-8-8------|-----------|-6H8-8-8-----|
    ---------------|-------------|--------------|-----------|-------------|
    ---------5-5h7-|-5-3---5-----|--------------|-5-3-3-5⁄3-|-------------|
    ---------5-5h7-|-5-3---5-----|--------------|-5-3-3-5⁄3-|-------------|
    ---------3-----|-----3-------|--------------|-3-----3---|-------------|
    
    ⁄⁄
    My
    ------------|---------------|------------|
    ------------|-6H8--8--------|------------|
    ------------|---------------|------------|
    -5-3-3-5⁄3--|-------5-5---5-|-5-3-3-5⁄3--|
    -5-3-3-5⁄3--|-------5---5---|-5-3-3-5⁄3--|
    -3----------|---------------|-3-----3----|
    
    ⁄⁄
    charcoal's gettin red hot Put your order in
    ⁄⁄
    my hand Won't ya let me show you what I got
    ----------|----------------|
    -12-13-13-|-------13-13-12-|
    -12-12-12-|-------12-12-12-|
    -12-14-14-|-------14-14-12-|
    ----------|----------------|
    ----------|----------------|
    
    ⁄⁄
    sizzlin in the pan
    ----------|----------------|
    -12-13-13-|-------13-13-12-|
    -12-12-12-|-------12-12-12-|
    -12-14-14-|-------14-14-12-|
    ----------|----------------|
    ----------|----------------|
    
    ⁄⁄
    Any way you want it baby
    ---------------|---------------|-8-
    -8b10--8b10----|-11----11------|---
    ---------------|----10---------|---
    ---------------|---------------|---
    ---------------|---------------|---
    ---------------|---------------|---
    
    ⁄⁄
    I am your burger man.
    |-----------------|------------------|
    |-----------------|------------------|
    |-----------------|------------------|
    |-----------------|------------------|
    |-5-5-7-5-5-5-7-5-|-5-5-7-5-5-5-7----|
    |-3-3-3-3-3-3-3-3-|-3-3-3-3-3-3-3-12⁄|
    
    ⁄⁄
    
    If you need good hot grillin, try my burger stand
    If you need a slice of thrillin, I'm the baddest in the land
    Any way you want it baby. I am your burger man.
    
    
    solo:
    ------------------|--------------|-----------------|----------------|
    ------------------|--------------|-3---3-----------|----------------|
    -6b5p3-5----------|-5-3---5------|---5-3-5---------|-5-3---5----3---|
    ------------------|-5-3-5-5------|-----------------|-5-3-5-5----3---|
    ------------------|-3-3-5-3------|-----------------|-3---3-3--3-----|
    ------------------|--------------|-----------------|----------------|
    
    ⁄⁄
    ----------------------|----------------|
    -14b16---14b--12------|----------------|
    ----------------------|----------------|
    ----------------------|-5-3---5--5-3-3-|
    ----------------------|-5-3---5--5-3-3-|
    ----------------------|-3---3----3-----|
    
    ⁄⁄
    ----------------------|----------------|---------------|--------------|
    -14b16--14b16-12------|----------------|---------------|--------------|
    ----------------------|----------------|-5B6P3-5-------|-5P3---5--5-3-|
    ----------------------|-5-3---5--5-3---|---------------|-5P3---5--5-3-|
    ----------------------|-5-3---5--5-3---|---------------|-3---3----3---|
    ----------------------|-3---3----3-----|---------------|--------------|
    
    ⁄⁄
    --------------|-------------|-------------------------|------------------------|
    --------------|-------------|-------------------------|------------------------|
    -5B7B5p3-5----|-(5)⁄3-------|-14b16-14b16-12----------|-(12)⁄10-----14b16------|
    --------------|-------------|-------------------------|------------------------|
    --------------|-------------|-------------------------|------------------------|
    --------------|-------------|-------------------------|------------------------|
    
    ⁄⁄
    -------------------|-----------------|-----------------|--------------------|
    -------------------|-----------------|-8b10-8b10-------|-11----11-----------|
    -14b16--12-12------|----------(12)⁄7-|-----------------|----10--------------|
    -------------------|-----------------|-----------------|--------------------|
    -------------------|-----------------|-----------------|--------------------|
    -------------------|-----------------|-----------------|--------------------|
    
    ⁄⁄
    
    -------------------|----------------|-------------------|-------------------|
    -13----13----------|----------------|-8b10-8b10---------|-11----11----------|
    ----12-------------|----------------|-------------------|----10-------------|
    -------------------|----------------|-------------------|-------------------|
    -------------------|----------------|-------------------|-------------------|
    -------------------|----------------|-------------------|-------------------|
    
    ⁄⁄
    -------------------|------11b12-----|
    -13----13----------|----------------|
    ----12-------------|----------------|
    -------------------|----------------|
    -------------------|----------------|
    -------------------|----------------|
    
    
    
    Rumour spreadin' a-'round in that Texas town
    'bout that shack outside La Grange 
    and you know what I'm talkin' about.
    Just let me know if you wanna go 
    to that home out on the range.
    They gotta lotta nice girls ah.
    
    Have mercy.
    A haw, haw, haw, haw, a haw.
    A haw, haw, haw.
    
    Well, I hear it's fine if you got the time
    and the ten to get yourself in. 
    A hmm, hmm.
    And I hear it's tight most ev'ry night,
    but now I might be mistaken.
    hmm, hmm, hmm.
    
    Ah have mercy.
    

    Тональность:

    Нет текста!



    Назад
    Рекомендуем посмотреть другие песни исполнителя «ZZ Top»:

    • Комментарии Facebook ()
    • Комментарии ВКонтакте



    Добавить в Избранное Браузера
    Сохранить здесь Очистить


    x

    0


    +
    -

    +
    -

    -

    Авторизация





    Зарегистрироваться

    M

    Дата и время

    • 15:28:24
       

    Социальные ссылки


    Наши приложения

    • Muzbank App Play Market
    • Muzbank Amazon App