MUZBANK



A Most Complete Bank Of Music Information

МУЗЫКАЛЬНО-ИНФОРМАЦИОННЫЙ БАНК

Поиск по сайту







    ZZZ Top • Cocaine (аккорды и текст - chords & lyrics)


    571

    Print

    Видео «Cocaine (ZZ Top)»

    Видео клипы к песне подбираются автоматически сайтом youtube. Возможны некоторые несоответствия клипов песне.

    ↑ Спрятать рекламу ↑



    Download


    If you wanna hang out you've got to take her out; cocaine.
    If you wanna get down, down on the ground; cocaine.
    She don't lie, she don't lie, she don't lie; cocaine.
    
    If you got bad news, you wanna kick them blues; cocaine.
    When your day is done and you wanna run; cocaine.
    She don't lie, she don't lie, she don't lie; cocaine.
    
    If your thing is gone and you wanna ride on; cocaine.
    Don't forget this fact, you can't get it back; cocaine.
    She don't lie, she don't lie, she don't lie; cocaine.
    
    She don't lie, she don't lie, she don't lie; cocaine. 
    
    
    
    ------------------------------------|
    ------------------------------------|
    ------------7-----------------------|
    ---9-9-7-9--7-----------------------|
    ---7-7-5-7--5--------------5--------|
    -----------------5h7p5h7p5----------|
    
    
    ----------------------------|
    --3s5-hold--3s5-3-----------|
    --2s4-hold--2s4-2-----------|
    ----------------------------|
    ----------------------------|
    ----------------------------|
    
    this is played in the background of the above riff
    --------------------------|
    --------------------------|
    --------------------------|
    ------0-------------------|
    --0h2---0h2-0-------------|
    --------------4p0---------|
    
    
    then this comes
    --------------------------|
    --------------------------|
    --9p7---7-----------------|
    ------9---9p7s5-----------|
    --------------------------|
    --------------------------|
    
    this is played during the chorus
    ---------------------------------------|
    -----------3s5-----------------5s3-----|
    -----------2s4-----------------4s2-----|
    --9-9-7-9---------9-9-7-9--------------|
    --7-7-5-7---------7-7-5-7--------------|
    ---------------------------------------|
    

    Тональность:

    Нет текста!



    Назад
    Рекомендуем посмотреть другие песни исполнителя «ZZ Top»:

    • Комментарии Facebook ()
    • Комментарии ВКонтакте



    Добавить в Избранное Браузера
    Сохранить здесь Очистить


    x

    0


    +
    -

    +
    -

    -

    Авторизация





    Зарегистрироваться

    M

    Дата и время

    • 22:29:21
       

    Социальные ссылки


    Наши приложения

    • Muzbank App Play Market
    • Muzbank Amazon App