MUZBANK



A Most Complete Bank Of Music Information

МУЗЫКАЛЬНО-ИНФОРМАЦИОННЫЙ БАНК

Поиск по сайту







    ZZZ Top • Got Me Under Pressure (аккорды и текст - chords & lyrics)


    258

    Print

    Видео «Got Me Under Pressure (ZZ Top)»

    Видео клипы к песне подбираются автоматически сайтом youtube. Возможны некоторые несоответствия клипов песне.

    ↑ Спрятать рекламу ↑



    Download


    ---------------|
    ---------------|
    -9-9⁄7---9-9⁄7-|
    -9-9⁄7-7-9-9⁄7-|
    -------7-------|
    ---------------|
    
    -----------------|---------------|
    -----------------|---------------|
    -----------------|---9⁄7---9-9⁄7-| repeat this a few times
    -9---9-9-9---9-9-|-9-9⁄7-7-9-9⁄7-|
    -7---7-7-7---7-7-|-7-----7-------|
    -----------------|---------------|
    (palm mute this E5)
    
    
    --------------|--------------------|
    --------------|--------------------|
    --------------|--------------------|
    -0---0------0-|--0-----------------| then repeating this four times brings
    -0---0------0-|--0-------------2---| you up to the first verse
    --------------|------0--0--3-------|
    
    
    I met a shiek from Mozambique
    who led me to the Congo.
    He dreamed to go to Mexico
    and sample a burrito.
    
    My temperature had risen again,
    it must have been a hundred and ten.
    
    Under the oaks I was telling some jokes
    and thinkin' I had it made-
    Gettin' on with the folks, havin' some Coke
    and coolin' off in the shade.
    
    My temperature had risen again,
    and it must have been a hundred and ten.
    
    I took a boat that couldn't float
    to Rio de Janeiro.
    So with my scuba I swam to Cuba
    but I'll be gone tomorrow.
    
    My temperature had risen again,
    it must have been a hundred and ten.
    

    Тональность:

    Нет текста!



    Назад
    Рекомендуем посмотреть другие песни исполнителя «ZZ Top»:

    • Комментарии Facebook ()
    • Комментарии ВКонтакте



    Добавить в Избранное Браузера
    Сохранить здесь Очистить


    x

    0


    +
    -

    +
    -

    -

    Авторизация





    Зарегистрироваться

    M

    Дата и время

    • 21:41:41
       

    Социальные ссылки


    Наши приложения

    • Muzbank App Play Market
    • Muzbank Amazon App