MUZBANK



A Most Complete Bank Of Music Information

МУЗЫКАЛЬНО-ИНФОРМАЦИОННЫЙ БАНК

Поиск по сайту







    ZZZ Top • Heaven Hell Or Houston (аккорды и текст - chords & lyrics)


    235

    Print

    Видео «Heaven Hell Or Houston (ZZ Top)»

    Видео клипы к песне подбираются автоматически сайтом youtube. Возможны некоторые несоответствия клипов песне.

    ↑ Спрятать рекламу ↑



    Download


    [----------------------------------------------------------------------
    [--------4-------------------2--------------------1--------------------
    [------------5------------------3--------------------2--------------2--
    [------5------------------3-------------------2------------------3-----
    [--------------------------------------------------------------3-------
    [-3--------------1-1-------------------0-0--------------1--------------
    
    [----------------------------------------------------0--0
    [--------4--------------------------------------1------0-
    [------------5----------------4--------------------------
    [----5---------------------3------------2----------------
    [-----------------------3--------------------------------
    [-3---------------1-1-------------0----------------------
    
    verse
    [---------------------
    [--------------------- repeat till
    [--------------------- "island of
    [-2----3-4-----3--2 shandaler"
    [---------------------
    [-0----1-2-----1--0---
    
    [-------------------
    [-------------------
    [-2---3--4----3-2---
    [-------------------
    [-0---1--2----1-0---
    [-------------------
    
    chorus
    [----3-------4-------0----3
    [----4-------5-------1----4
    [----5-------6-------2----5
    [--------------------------
    [--------------------------
    [-3------4-------0------3--
    
    
    Hello darling.
    Surprised?
    Yes, it’s me again.
    I have just returned from the island of Chandelier.
    What am I doing in town?
    Well, I’m glad you asked.
    I’m just passing through in search of the ever elusive Thunderbird.
    
    I got a job as a public relations man.
    Passing out handbills on Austin Street.
    Merely an effort to improve my financial situation,
    And ward off a case of the D.T.’s
    
    So farewell, my darling.
    Perhaps we’ll meet again 
    On some sin-infested street corner in Houston Texas.
    
    

    Тональность:

    Нет текста!



    Назад
    Рекомендуем посмотреть другие песни исполнителя «ZZ Top»:

    • Комментарии Facebook ()
    • Комментарии ВКонтакте



    Добавить в Избранное Браузера
    Сохранить здесь Очистить


    x

    0


    +
    -

    +
    -

    -

    Авторизация





    Зарегистрироваться

    M

    Дата и время

    • 22:19:28
       

    Социальные ссылки


    Наши приложения

    • Muzbank App Play Market
    • Muzbank Amazon App