MUZBANK



A Most Complete Bank Of Music Information

МУЗЫКАЛЬНО-ИНФОРМАЦИОННЫЙ БАНК

Поиск по сайту







    ZZZ Top • Legs (аккорды и текст - chords & lyrics)


    344

    Print

    Видео «Legs (ZZ Top)»

    Видео клипы к песне подбираются автоматически сайтом youtube. Возможны некоторые несоответствия клипов песне.

    ↑ Спрятать рекламу ↑



    Download


    (I don't know the first 2 or three measures, which are a cool little intro)
    
    ----------------------|-----------------|------------------|------------------|
    ----------------------|-----------------|-8b---------------|------------------|
    ----------6-7h9-------|(9)p7-------7h9--|-----------7h9----|(9)p7-------x-----|
    ----------------------|-----------9-----|---------9--------|-------------x----|
    ----------------------|-----------------|------------------|--------------5h7-|
    ----------------------|-----------------|------------------|------------------|
    
    ----------------------|
    ----------------------|
    ---9----9--------9--9-|---------------------repeat----------------------->
    ---9----9--------9--9-|
    -7-7----7--------7--7-|
    -0--------------------|
    
    ⁄⁄
    ------------------|---------------------|------------------|------------------|
    ------------------|---------------------|------------------|------------------|
    ------------------|---------------------|------------------|------------------|
    ------------------|---------------------|------------------|------------------|
    -5--------5-7-7-7-|---------------------|------------------|------------------|
    ------------------|---------------------|------------------|---------x-17⁄----|
    
    ------------------|---------------------|------------------|------------------|
    ------------------|---------------------|------------------|------------------|
    ---7----7-----7-7-|----7-----7------7-7-|-9-9----9-----9-9-|-9--9-----9-------|
    -7-7----7-----7-7-|-7--7-----7------7-7-|-9-9----9-----9-9-|-9--9-----9-------|
    -5------5-----5-5-|-5--------5------5-5-|-7-7----7-----7-7-|-7--7-----7-------|
    ------------------|---------------------|------------------|------------------|
    
    ----0-0-0-0--0-----------|
    ---/5-5-5-5--5-----------|
    ---/4-4-4-4--4-2b3b2-0h1-|
    -------------------------|
    -------------------------|
    -0-----------------------|
    
    ------------------------|
    --/5-5-5-5--5-----------|
    -1/4-4-4-4--4-2b3b2-0h1-| repeat this measure two more times to bring
    -2----------------------| yourself up to the first verse
    ------------------------|
    ------------------------|
    
    
    Verses
    legs she knows how to use them She never
    -------------------|-------------------|-------------------|------------------|
    -------------3/21--|-------------------|-------------------|------------------|
    -------------------|-------------------|-------------------|------------------|
    -------------------|-------------------|-------------------|------------------|
    -------------------|-------------------|---------------5-7-|------------------|
    -------------------|-------------------|-------------------|----------------x-|
    
    begs she knows how to choose them She`s holdin
    -------------------|-------------------|-------------------|------------------|
    -------------------|-------------------|-------------------|------------------|
    -------------------|-------------------|-------------------|------------------|
    -------------------|-------------------|-------------------|------------------|
    -2h4---------------|-------------------|---------------xh4-|------------------|
    -------------------|-------------------|-------------------|------------------|
    
    leg wonderin how to feel em Would you getbe
    -------------------|-------------------|-------------------|------------------|
    -------------------|-------------------|-------------------|------------------|
    -------------------|-------------------|-------------------|------------------|
    ---------------x---|-------------------|-------------------|------------------|
    -----------------7-|-------------------|---------------6h7-|(7)⁄4-------------|
    -------------------|-------------------|--------------7----|------------------|
    
    hind them if u could only find them She`s my
    -------------------|-------------------|-------------------|------------------|
    -------------------|-------------------|-------------------|------------------|
    -------------------|-------------------|-------------------|------------------|
    -------------------|-------------------|----------------2--|------------------|
    ---------------2-4-|-2-----x-x-x-x-x-x-|-4-4-------------4-|------------------|
    --------------x----|-------------------|-------------------|------------------|
    
    baby Shes my baby Yeah itsall
    -------------------|-------------------|-------------------|------------------|
    -5-----------------|-------------------|-------------------|------------------|
    -2-----------------|-------------------|-4-----------------|------------------|
    -2-----------------|-------------------|-4-----------------|------------------|
    -0-----------------|-------------------|-2-----------------|------------------|
    -------------------|-------------------|-------------------|------------------|
    
    right
    ----0-0-0-0--0-----------|
    ---/5-5-5-5--5-----------|
    ---/4-4-4-4--4-2b3b2-0h1-|
    -------------------------|
    -------------------------|
    -0-----------------------|
    
    ------------------------|
    --/5-5-5-5--5-----------|
    -1/4-4-4-4--4-2b3b2-0h1-| repeat this measure two more times to bring
    -2----------------------| yourself up to the second verse
    ------------------------|
    ------------------------|
    
    The second verse is pretty similar, but the lead guitar is different
    
    
    Here is the solo
    
    ------------------|--------------------|----------------------|---------------|
    -----------9------|--------------------|----------------------|---------------|
    ---------X---11---|--------------------|-9-9----------------9-|---9-----------|
    -11------------11-|-----(11)⁄-----9-11-|-----11--------9------|-----11--------|
    ------------------|-----------9/11-----|-----------9/11--11---|---------------|
    ------------------|--------------------|----------------------|---------------|
    
    ------------------------|-----------------|-------2-2-----|
    ----------------------3-|--2--------------|-----------2---|
    ---------------2-4------|----2------------|---------------|
    -4-----------X----------|------4----------|---4-----------|
    ------------x-----------|-----------------|---------------|
    
    ---------------------|-------------------------|-----------------------|
    ---3-3---2-----------|-------------------11----|-----------------------|
    -------4----2-2b-----|-----------------9-11----|-11---9---x------------|
    -----------------4---|(4)/11---------------11--|------------11--11--11-|
    ---------------------|---------------x---------|-----------------------|
    ---------------------|-------------------------|-----------------------|
    
    ----------------------|---------------------|-------------------|
    ----------------------|---------------------|------2---4--------|
    ----------------------|---------------------|------2---4--2-----|
    -11--11--11-11--11--9-|-11----9-9-----------|--2/4---4------4---|
    ----------------------|----11-----11⁄9------|-------------------|
    ----------------------|-----------------12⁄-|-------------------|
    
    -------------------|--------------------|---------------|
    ---------------2---|----5---4-----------|-----5---4-----|
    ----2--4-2---4-----|--4-----------------|---------------|
    --4----------------|--4---4--4-4-4-4--4-|-4-4---4-------|
    -------------------|--2---2--2-2-2-2--2-|-2-2---2-------|
    -------------------|--------------------|---------------|
    
    and then this again
    
    ----0-0-0-0--0-----------|
    ---/5-5-5-5--5-----------|
    ---/4-4-4-4--4-2b3b2-0h1-|
    -------------------------|
    -------------------------|
    -0-----------------------|
    
    ------------------------|
    --/5-5-5-5--5-----------|
    -1/4-4-4-4--4-2b3b2-0h1-| repeat this measure two more times to bring
    -2----------------------| yourself up to the second verse
    ------------------------|
    ------------------------|
    
    She's got legs, she knows how to use them.
    She never begs, she knows how to choose them.
    She's holdin' leg wonderin' how to feel them.
    Would you get behind them if you could only find them?
    She's my baby, she's my baby,
    yeah, it's alright.
    
    She's got hair down to her fanny.
    She's kinda jet set, try undo her panties.
    Everytime she's dancin' she knows what to do.
    Everybody wants to see if she can use it.
    She's so fine, she's all mine,
    girl, you got it right.
    
    She's got legs, she knows how to use them.
    She never begs, she knows how to choose them.
    She's got a dime all of the time,
    stays out at night movin' through time.
    Oh, I want her, shit, I got to have her,
    the girl is alright, she's alright.
    

    Тональность:

    Нет текста!



    Назад
    Рекомендуем посмотреть другие песни исполнителя «ZZ Top»:

    • Комментарии Facebook ()
    • Комментарии ВКонтакте



    Добавить в Избранное Браузера
    Сохранить здесь Очистить


    x

    0


    +
    -

    +
    -

    -

    Авторизация





    Зарегистрироваться

    M

    Дата и время

    • 19:04:17
       

    Социальные ссылки


    Наши приложения

    • Muzbank App Play Market
    • Muzbank Amazon App