MUZBANK



A Most Complete Bank Of Music Information

МУЗЫКАЛЬНО-ИНФОРМАЦИОННЫЙ БАНК

Поиск по сайту







    ZZZ Top • My Head's In Mississippi (аккорды и текст - chords & lyrics)


    306

    Print

    Видео «My Head's In Mississippi (ZZ Top)»

    Видео клипы к песне подбираются автоматически сайтом youtube. Возможны некоторые несоответствия клипов песне.

    ↑ Спрятать рекламу ↑



    Download


    ------------------|--------------|
    ------------------|--------------|
    ----2-----2-----2-|----7---7-7---|
    ----2-----2-----2-|----7---7-7---|
    -0--------0-----0-|--0---0-------|
    ------------------|--------------|
    
    ⁄⁄
    
    ------------------|--------------|
    ------------------|--------------|
    ----2-----2-----2-|----7---7-7---|
    ----2-----2-----2-|----7---7-7---|
    -0--------0-----0-|--0---0-------|
    ------------------|--------------|
    
    --------------|
    --------------|
    -------5h7p5p0|
    ---5----------|
    -0---0--------|
    --------------|
    
    
    ------------------|--------------|
    ------------------|--------------|
    ----2-----2-----2-|----7---5-7---|
    ----2-----2-----2-|----7---5-7---|
    -0--------0-----0-|--0---0-------|
    ------------------|--------------|
    
    ------------------|--------------|
    ------------------|--------------|
    -5b---------------|--------5-----|
    -5b---------------|----5h7--7-5-7|
    ------------------|--0-----------|
    ------------------|--------------|
    
    ------------------|--------------|
    ------------------|--------------|
    ----2-----2-----2-|----7---7-7---|
    ----2-----2-----2-|----7---7-7---|
    -0--------0-----0-|--0---0-------|
    ------------------|--------------|
    
    ------------------|
    ------------------|
    ------------------|
    ------5-----------|
    ------------------|
    ------------------|
    
    ------------------|--------------|
    ------------------|--------------|
    ----2-----2-----2-|----7---7-7---|
    ----2-----2-----2-|----7---7-7---|
    -0--------0-----0-|--0---0-------|
    ------------------|--------------|
    
    ------------------|
    ------------------|
    ----2-----2-----2-|
    ----2-----2-----2-|
    -0--------0-----0-|
    ------------------|
    
    
    Текст:
    
    I'm shufflin' thru the Texas sand,
    but my head's in Mississippi.
    I'm shufflin' thru the Texas sand,
    but my head's in Mississippi.
    The blues has got a hold of me.
    I believe I'm gettin' dizzy.	 (Spoken: Help me now.)
    
    I keep thinkin' 'bout that night in Memphis,
    Lord, I thought I was in Heaven.
    I keep thinkin' 'bout that night in Memphis,
    I thought I was in Heaven.
    But I was stumblin' thru the parking lot 
    of an invisible seven eleven.	 (Spoken: What was I doin out there?)
    
    Where's my head baby?
    Somewhere in Mississippi.
    
    Last night I saw a cowgirl.
    She was floatin' across the ceiling.
    And last night I saw a naked cowgirl.
    She was floatin' across the ceiling.
    She was mumblin to some howlin' wolf
    about some voodoo healin'.	 (Spoken: Mmm Baby.)
    

    Тональность:

    Нет текста!



    Назад
    Рекомендуем посмотреть другие песни исполнителя «ZZ Top»:

    • Комментарии Facebook ()
    • Комментарии ВКонтакте



    Добавить в Избранное Браузера
    Сохранить здесь Очистить


    x

    0


    +
    -

    +
    -

    -

    Авторизация





    Зарегистрироваться

    M

    Дата и время

    • 22:43:30
       

    Социальные ссылки


    Наши приложения

    • Muzbank App Play Market
    • Muzbank Amazon App