MUZBANK



A Most Complete Bank Of Music Information

МУЗЫКАЛЬНО-ИНФОРМАЦИОННЫЙ БАНК

Поиск по сайту







    ZZZ Top • Poke Chop Sandwich (аккорды и текст - chords & lyrics)


    241

    Print

    Видео «Poke Chop Sandwich (ZZ Top)»

    Видео клипы к песне подбираются автоматически сайтом youtube. Возможны некоторые несоответствия клипов песне.

    ↑ Спрятать рекламу ↑



    Download


    Intro:
         |------------|
         |-5-5--5-----|
    POKE!|-5-5--5-----| (Plucked with fingers)
         |-5-5--5-----|
         |------------|
         |------------|
    
    PH
    |-----------------------------|--------------------------------|
    |-----------------------------|--------------------------------|
    |-7^p5------------------------|-7^p5-7^~~~---------------------|
    |------7~~~-------------------|--------------------------------|
    |-----------------------------|--------------------------------|
    |-----------------------------|--------------------------------|
    
    |-----------------------------|--------------------------------|
    |-----------------------------|--------------------------------|
    |-7^p5------------------------|-7^p5-7^(slow bend)-------------|
    |------7~~~-------------------|--------------------------------|
    |-----------------------------|--------------------------------|
    |-----------------------------|--------------------------------|
    
    Verse: (Chorus/flanger effect)
    |-----------------------------|--------------------------------|
    |-----------------------------|--------------------------------|
    |--------------------------5--|-----------------------------5--|
    |----------------------2-2-5--|-------------------------2-2-5--|
    |----------------------0-0-3--|-------------------------0-0-3--|
    |-----------------------------|--------------------------------|
    "poke chop sandwich..."
    
    |-----------------------------|--------------------------------|
    |-----------------------------|--------------------------------|
    |--------------------------5^-|---------------------------12h14~~~~
    |----------------------2-2-5^(slow bend)----------------2------|
    |----------------------0-0-3^-|-------------------------0------|
    |-----------------------------|--------------------------------|
    
    |-----------------------------|--------------------------------|
    |-----------------------------|--------------------------------|
    |--------------------------5--|-----------------------------5^-|
    |----------------------2-2-5--|-------------------------2-2-5^-|
    |----------------------0-0-3--|-------------------------0-0-3^-|
    |-----------------------------|--------------------------------|
    
    |-----------------------------|--------------------------------|
    |-----------------------------|--------------------------------|
    |--------------------------5--|--------------------------------|
    |----------------------2-2-5--|--------------------------------|
    |----------------------0-0-3--|------------------(wierd noises)|
    |-----------------------------|--------------------------------|
    
    Chorus: (no effect)
    |--------------------------------|
    |--------------------------------|
    |-2-2----2-2---2----2-2-2----2-2-|
    |-2-2----2-2---2----2-2-2----2-2-|
    |-0-0-3^-0-0---0-3^-0-0-0-3^-0-0-|
    |--------------------------------|
    
    |--------------------------------|
    |--------------------------------|
    |-5-5----5-5---5----5-5-5----5-5-|
    |-5-5----5-5---5----5-5-5----5-5-|
    |-3-3-6^-3-3---3-6^-3-3-3-6^-3-3-|
    |--------------------------------|
    
    |------------|
    |------------|
    |------------|
    |-7-7-7------|
    |-7-7-7------|
    |-5-5-5------|
    
    ТЕКСТ: 
    
    Poke
    Better watch that
    Poke chop sandwich...waitin' in th' sack
    Ridin' a tom tom, a double fat back
    Got my poke chop sandwich...
    Layin' on da drum
    Poke chop greazy...i'm gonna get some
    Get some a' dat poke chop
    Poke chop sandwich
    Poke chop
    Poke chop sandwich
    Yeah yeah twenty five
    Louisiana back beat and th' texas bop
    Do a hollywood shuffle jes' can't top it
    New york turn around and
    Th' London stomp
    African good luck combination
    I know that ya want
    Poke chop
    Poke chop sandwich
    Poke chop
    Double poke chop sandwich
    Play on
    Spider & lightnin' hopkins got
    Th' big bad beat
    Ain't no question what they gonna eat
    Spider wanna a bottle,
    Lightnin' wanna a can
    They'll take in a bucket
    'cause they dam well can
    A poke chop
    A poke at dat chop
    Cut dat poke chope
    Poke chop sandwich
    Feel like, I feel like a poke chop sandwich
    Give me dat sandwich in wax paper
    Pork chop sandwich
    

    Тональность:

    Нет текста!



    Назад
    Рекомендуем посмотреть другие песни исполнителя «ZZ Top»:

    • Комментарии Facebook ()
    • Комментарии ВКонтакте



    Добавить в Избранное Браузера
    Сохранить здесь Очистить


    x

    0


    +
    -

    +
    -

    -

    Авторизация





    Зарегистрироваться

    M

    Дата и время

    • 03:14:26
       

    Социальные ссылки


    Наши приложения

    • Muzbank App Play Market
    • Muzbank Amazon App