MUZBANK



A Most Complete Bank Of Music Information

МУЗЫКАЛЬНО-ИНФОРМАЦИОННЫЙ БАНК

Поиск по сайту







    ZZZ Top • Sharp Dressed Man (аккорды и текст - chords & lyrics)


    674

    Print

    Видео «Sharp Dressed Man (ZZ Top)»

    Видео клипы к песне подбираются автоматически сайтом youtube. Возможны некоторые несоответствия клипов песне.

    ↑ Спрятать рекламу ↑



    Download


    [INTRO repeat several times]
    E-|-------------------------------------|-------------------------------------|
    B-|-------------------------------------|-------------------------------------|
    G-|-----10--8---------------------------|----10--8----------------------------|
    D-|-----10--8--10-----------------------|----10--8--10---------------------5--|
    A-|-------------------------------------|-----------------------------1h3--3--|
    E-|-------------------------------------|--------------------------3----------|
    
    
    C Bb5 F5
    E-|------------------|-----------------|-----------------|--------------------|
    B-|------------------|-----------------|-----------------|--------------------|
    G-|------------------|-----------------|-----------------|--------------------|
    D-|-5--5-----------5-|-5-5--------5⁄3--|-3--3--------3---|-----------------5--|
    A-|-3--3------1h3--3-|-3-3--------3⁄1--|-1--1--------1-3-|-3----------1h3--3--|
    E-|--------3---------|-----------------|---------------1-|-1-------3----------|
    Clean shirt news shoes and I dont know where I'm going to
    Silk suit black tie I dont need a reason why.
    
    G5
    They come runnin' just as fast as they can.
    C5
    'cause ev'ry girl crazy 'bout a sharp dressed man.
    
    Solo part 1 (best try)
    E-|------------------|-----------------|-----------------|--------------------|
    B-|-3/5-5-5-5-5------|-3/5-5-5-5-5-----|-5-5⁄3/5--5-5⁄3/5|-5-5-5-5-5----------|
    G-|-3/5-5-5-5-5------|-3/5-5-5-5-5-----|-5-5⁄3/5--5-5⁄3/5|-5-5-5-5-5--------8-|
    D-|-3/5-5-5-5-5------|-3/5-5-5-5-5-----|-5-5⁄3/5--5-5⁄3/5|-5-5-5-5-5----------|
    A-|------------------|-----------------|-----------------|--------------------|
    E-|------------------|-----------------|-----------------|--------------------|
    
    E-|------------------|-----------------|-----------------|-----------------/6-|
    B-|-8-8-8-7-8------7/|-8-8-------------|-8-8-7-8---8-----|-----------------/8-|
    G-|---------8--5-----|-----9⁄8-5-----8-|---------8---8-5-|-----------------/8-|
    D-|------------------|-----------------|-----------------|--------------------|
    A-|------------------|-----------------|-----------------|--------------------|
    E-|------------------|-----------------|-----------------|--------------------|
    
    E-|-6-6-6-6-------/6-|-6-6-6-6------/6-|-6-6-6-6---------|--------------------|
    B-|-8-8-8-8-------/8-|-8-8-8-8------/8-|-8-8-8-8-----8---|-5------------------|
    G-|-8-8-8-8-------/8-|-8-8-8-8------/8-|-8-8-8-8---8---8-|-5------------------|
    D-|------------------|-----------------|-----------------|-5------------------|
    A-|------------------|-----------------|-----------------|-----------------10-|
    E-|------------------|-----------------|-----------------|--------------------|
    
    E-|-------------------------------------|-------------------------------------|
    B-|-------------------------------------|-------------------------------------|
    G-|-------------------------------------|--------------8----------------------|
    D-|-10--10--10--8---10--10--10----------|--10--10--10-------------------------|
    A-|-----------------------------10------|---------------------------------10--|
    E-|-------------------------------------|-------------------------------------|
    
    E-|-------------------------------------|-------------------------------------|
    B-|-------------------------------------|-------------------------------------|
    G-|-------------------------------------|-------------------------------------|
    D-|-10--10--10--8---10--10--10----------|--10--8--------------------------/10-|
    A-|-----------------------------10------|---------10----------------------/10-|
    E-|-------------------------------------|-------------------------------------|
    
    E-|------------------|-----------------|-----------------|--------------------|
    B-|------------------|-----------------|-----------------|------------------4-|
    G-|------------------|-----------------|-------------8---|--------------------|
    D-|-10-10-10-10---/10|-10-10-10-10--/10|-10-10-10-10---10|-10-----------------|
    A-|-10-10-10-10---/10|-10-10-10-10--/10|-10-10-10-10---10|-10-----------------|
    E-|------------------|-----------------|-----------------|--------------------|
    
    E-|-1---1---1---1----|-1----1----------|-----------------|------------------1-|
    B-|---4---4---4---4--|---4----4----1---|-1--1---1-----1--|---1--4-------------|
    G-|------------------|-------------0---|-----------------|-0------------------|
    D-|------------------|-----------------|-----------------|--------------------|
    A-|------------------|-----------------|-----------------|--------------------|
    E-|------------------|-----------------|-----------------|--------------------|
    
    E-|---1---1--1---1---|---1-------------|-----------------|--------------------|
    B-|-4---4------4-----|-4---4---1----1--|-1--1-------1-1--|-1------0-----------|
    G-|------------------|------------0----|------3--0-------|-0---3--0-----------|
    D-|------------------|-----------------|-----------------|-----3--0-----------|
    A-|------------------|-----------------|-----------------|--------------------|
    E-|------------------|-----------------|-----------------|--------------------|
    
    E-|-------------------------------------|-------------------------------------|
    B-|-------------------------------------|-------------------------------------|
    G-|-----10--8---------------------------|----10--8----------------------------|
    D-|-----10--8--10-----------------------|----10--8--10---------------------5--|
    A-|-------------------------------------|-----------------------------1h3--3--|
    E-|-------------------------------------|--------------------------3----------|
    

    Тональность:

    Нет текста!



    Назад
    Рекомендуем посмотреть другие песни исполнителя «ZZ Top»:

    • Комментарии Facebook ()
    • Комментарии ВКонтакте



    Добавить в Избранное Браузера
    Сохранить здесь Очистить


    x

    0


    +
    -

    +
    -

    -

    Авторизация





    Зарегистрироваться

    M

    Дата и время

    • 02:22:08
       

    Социальные ссылки


    Наши приложения

    • Muzbank App Play Market
    • Muzbank Amazon App