MUZBANK



A Most Complete Bank Of Music Information

МУЗЫКАЛЬНО-ИНФОРМАЦИОННЫЙ БАНК

Поиск по сайту







    ZZZ Top • Thunderbird (аккорды и текст - chords & lyrics)


    221

    Print

    Видео «Thunderbird (ZZ Top)»

    Видео клипы к песне подбираются автоматически сайтом youtube. Возможны некоторые несоответствия клипов песне.

    ↑ Спрятать рекламу ↑



    Download


    (Intro)
    |-----|------------------|-----------------|-----------------|
    |-----|------------------|-----------------|-----------------|
    |---3-|-(3)--3-3-3-3-3-3-|-3-3-3-3-3-3-3-3-|-3-3-3-3-3-3-3-3-|
    |-----|------------------|-----------------|-----------------|
    
    |--------------|----------------|--------------|
    |--------------|-3--3-3-3-3-3-3-|-3-3----------|
    |-3------------|----------------|-----0--1--2--|
    |---0----1--3--|----------------|--------------|
    
    |----------------|----------------|----------------|
    |----------------|--------------5-|-5-5-5-5-5----0-|
    |-3--3-3-3-3-3-3-|-3-3-3-3-3--5---|----------------|
    |----------------|----------------|----------------|
    
    |----------------|---------------|-------------||
    |-3--3-3-3-------|---------------|-------------||
    |----------0-1-3-|-(3)-----------|----0--1--2--||
    |----------------|------0--1--2--|-3-----------||
    
    |----------------|-----------------|-----------------|
    |----------------|-----------------|-----------------|
    |-3--3-3-3-3-3-3-|-3-3-3-3-3-3-3-3-|-3-3-3-3-3-3-3-3-|
    |----------------|-----------------|-----------------|
    
    |-----------------|----------------|-------------|
    |-----------------|-3--3-3-3-3-3-3-|-3-----------|
    |-3-3-3-3-3-3-3-3-|----------------|----0--1--2--|
    |-----------------|----------------|-------------|
    
    |----------------|-----------------|-------------------|
    |----------------|-----------------|-5-----5-(5)-------|
    |-3--3-3-3-3-3-3-|-3-3-3-3-3-3-5-5-|-------------------|
    |----------------|-----------------|---3-3-------3-3-3-|
    
    |------------------|--------------|-------------||
    |-------3-(3)------|--------------|-------------||
    |--------------0-1-|-3------------|----0--1--2--||
    |-1-1-1------------|---0----1--2--|-3-----------||
    
    (Verse)
    |----------------|-----------------|----------------|
    |----------------|-----------------|----------------|
    |-3--3-3-3-3-3-3-|-3-3-3-3-3-3-3-3-|-3-3-3-3-3-3----|
    |----------------|-----------------|-------------1--|
    
    |-------------|----------------|-------------|
    |-------------|-3--3-3-3-3-3-3-|-3-----------|
    |-------------|----------------|----0--1--2--|
    |-0--1--2--3--|----------------|-------------|
    
    |-----------------|-----------------|-----------------|
    |-----------------|-----------------|-5-5-5-5-5-5-5-0-|
    |-3-3-3-3-3-3-3-3-|-3-3-3-3-3-3-3-3-|-----------------|
    |-----------------|-----------------|-----------------|
    
    |-----------------|---------------|--------------||
    |-3-3-3-3-3-3-----|---------------|--------------||
    |-------------0-1-|-3-3-----------|-3------------||
    |-----------------|-----0-0-1--2--|----0--1--2-3-||
    
    (Chorus)
    |----------------|-----------------|-----------------|
    |----------------|-----------------|-----------------|
    |-3--3-3-3-3-3-3-|-3-3-3-3-3-3-3-3-|-3-3-3-3-3-3-3-3-|
    |----------------|-----------------|-----------------|
    
    |-----------------|-----------------|-----------------|
    |-----------------|-----------------|-----------------|
    |-3-3-3-3-3-3-3-3-|-----------------|-----0-0-1-1-2-2-|
    |-----------------|-1-1-1-1-1-1-1-1-|-1-1-------------|
    
    |-----------------|-----------------|-------------------|
    |-----------------|-----------------|-5-----5-(5)-------|
    |-3-3-3-3-3-3-3-3-|-3-3-3-3-3-3-5-5-|-------------------|
    |-----------------|-----------------|---3-3-------3-3-3-|
    
    |------------------|--------------|-------------||
    |-------3-(3)------|--------------|-------------||
    |--------------0-1-|-3------------|----0--1--2--||
    |-1-1-1------------|---0----1--2--|-3-----------||
    
    (During solo)
    |----------------|-----------------|-----------------|
    |----------------|-----------------|-----------------|
    |-3--3-3-3-3-3-3-|-3-3-3-3-3-3-3-3-|-3-3-3-3-3-3-3-3-|
    |----------------|-----------------|-----------------|
    
    |---------------|----------------|----------------|
    |---------------|-3--3-3-3-3-3-3-|---x------------|
    |-3-------------|----------------|-----0--1-1-2-2-|
    |---0----1--2-3-|----------------|----------------|
    
    |----------------|-----------------|----------------|
    |----------------|---------------5-|-(5)--5--5--4-0-|
    |-3--3-3-3-3-3-3-|-3-3-3-3-3-3-5---|----------------|
    |----------------|-----------------|----------------|
    
    |--------------|---------------|-------------|
    |-3--3--3------|---------------|-------------|
    |----------0-3-|-(3)-----------|----0--1--3--|
    |--------------|------0--1--2--|-3-----------|
    
    |--------------|-----------------|-----------------|
    |--------------|-----------------|-----------------|
    |----3--3--3-3-|-3-3-3-3-3-3-3-3-|-3-3-3-3-3-3-3-3-|
    |-1------------|-----------------|-----------------|
    
    |-------------|----------------|-------------|
    |-------------|----------------|-------------|
    |-3-----------|----------------|----0--1--2--|
    |----0--1--3--|-1--1-1-1-1-1-1-|-1-----------|
    
    |----------------|-----------------|------------------|
    |----------------|---------------5-|-(5)----------3---|
    |-3--3-3-3-3-3-3-|-3-3-3-3-3-3-5---|----------------3-|
    |----------------|-----------------|------3-3-3-3-----|
    
    |--------------|-------------|-------------|
    |-3--3--3------|-------------|-------------|
    |----------0-1-|-3-----------|----0--1--2--|
    |--------------|----0--1--2--|-3-----------|
    
    |-----------------|-----------------|-----------------|
    |-----------------|-----------------|-----------------|
    |-3-3-3-3-3-3-3-3-|-3-3-3-3-3-3-3-3-|-3-3-3-3-3-3-3-3-|
    |-----------------|-----------------|-----------------|
    
    |-----------------|---------------|-------------|
    |---------0-0-1-2-|-3--3-3-3-3-3--|-------------|
    |-3-3-3-3---------|---------------|-0--0--1--2--|
    |-----------------|---------------|-------------|
    
    |-----------------|-----------------|-----------------|
    |-----------------|-----------------|-5-5-5-5-5-5-5-0-|
    |-3-3-3-3-3-3-3-3-|-3-3-3-3-3-3-5-5-|-----------------|
    |-----------------|-----------------|-----------------|
    
    |-----------------|--------------|----------||
    |-3-3-3-3-3-3-----|--------------|----------||
    |-------------0-1-|-3------------|----0-----||
    |-----------------|---0----1--2--|-3--------||
    
    (Verse)
    |----------------|-----------------|-----------------|
    |----------------|-----------------|-----------------|
    |-3--3-3-3-3-3-3-|-3-3-3-3-3-3-3-3-|-3-3-3-3-3-3-3-3-|
    |----------------|-----------------|-----------------|
    
    |-----------------|----------------|--------------|
    |-----------------|-3--3-3-3-3-3-3-|-3------------|
    |-3-3-3-3-3-3-3-3-|----------------|---0----1--2--|
    |-----------------|----------------|--------------|
    
    |-----------------|-----------------|-------------------|
    |-----------------|-----------------|-5-----5-(5)-------|
    |-3-3-3-3-3-3-3-3-|-3-3-3-3-3-3-5-5-|-------------------|
    |-----------------|-----------------|---3-3-------3-3-3-|
    
    |------------------|--------------|-------------||
    |-------3-(3)------|--------------|-------------||
    |--------------0-1-|-3------------|----0--1--2--||
    |-1-1-1------------|---0----1--2--|-3-----------||
    
    (Chorus)
    |----------------|-----------------|-----------------|
    |----------------|-----------------|-----------------|
    |-3--3-3-3-3-3-3-|-3-3-3-3-3-3-3-3-|-3-3-3-3-3-3-3-3-|
    |----------------|-----------------|-----------------|
    
    |-----------------|----------------|-------------|
    |-----------------|-3--3-3-3-3-3-3-|-3-----------|
    |-3-3-3-3-3-3-3-3-|----------------|----0--1--2--|
    |-----------------|----------------|-------------|
    
    |----------------|-----------------|-------------------|
    |----------------|-----------------|-5-----5-(5)-------|
    |-3--3-3-3-3-3-3-|-3-3-3-3-3-3-5-5-|-------------------|
    |----------------|-----------------|---3-3-------3-3-3-|
    
    |------------------|--------------|------------------||
    |-------3-(3)------|--------------|------------------||
    |--------------0-1-|-3------------|------0-(0)-1-1---||
    |-1-1-1------------|---0----1--2--|-3--3-----------3-||
    
    (Outro)
    |-------------|----------------|-------------|
    |-------------|----------------|-------------|
    |-3--3--3--2--|-3-----4-(4)----|-3--3--3--2--|
    |-------------|----------------|-------------|
    
    |-------------|-------------|----------------|
    |-------------|-3--3--3--0--|-3-0------------|
    |---3-4-5-6-7-|-------------|--------0-0-1-1-|
    |-------------|-------------|-----1----------|
    
    |--------------|--------------|-------------|
    |--------------|--------2--1--|-0--2--3--4--|
    |-3-3-3--3--3--|-3-0----------|-------------|
    |--------------|--------------|-------------|
    
    |-------------|----3--2-----|----1--0-----|
    |-------------|----------1--|-0-----------|
    |-0--0--1--2--|-3-----------|----------4--|
    |-------------|-------------|-------------|
    
    |-------------|----------------|-------------|
    |-------------|----------------|-------------|
    |-3--3--3--2--|-3-----4-(4)----|-3--3--3--2--|
    |-------------|----------------|-------------|
    
    |-------------|--------------|--------------|
    |-------------|-----3--3--0--|---x----------|
    |---3-4-5-6-7-|-3-0----------|--------0--1--|
    |-------------|--------------|-----1--------|
    
    |-------------|--------------|-------------|
    |-------------|------0-2--1--|-0--2--3--4--|
    |-3--3--2--3--|-0-0----------|-------------|
    |-------------|--------------|-------------|
    
    |-------------|----------|------------:
    |-------------|----------|------------:
    |-0--0--2-----|----------|-x-----3----:
    |-------------|----------|------------:
    
    |-----------------:------------:-------------*|
    |-----------------:------------:-------------*|
    |-(3)-0-3-0-3--3--:-(3)--------:-x⁄----------*|
    |-----------------:------------:-------------*|
    
    

    Тональность:

    Нет текста!



    Назад
    Рекомендуем посмотреть другие песни исполнителя «ZZ Top»:

    • Комментарии Facebook ()
    • Комментарии ВКонтакте



    Добавить в Избранное Браузера
    Сохранить здесь Очистить


    x

    0


    +
    -

    +
    -

    -

    Авторизация





    Зарегистрироваться

    M

    Дата и время

    • 17:36:06
       

    Социальные ссылки


    Наши приложения

    • Muzbank App Play Market
    • Muzbank Amazon App