MUZBANK



A Most Complete Bank Of Music Information

МУЗЫКАЛЬНО-ИНФОРМАЦИОННЫЙ БАНК

Поиск по сайту







    ZZZ Top • Tv Dinners (аккорды и текст - chords & lyrics)


    275

    Print

    Видео «Tv Dinners (ZZ Top)»

    Видео клипы к песне подбираются автоматически сайтом youtube. Возможны некоторые несоответствия клипов песне.

    ↑ Спрятать рекламу ↑



    Download


    Tv dinners there's nothin' else to eat
    Tv dinners they really can't be beat
    I like 'em frozen but you understand
    I throw 'em in and wave 'em and I'm a brand new man oh yeah!
    
    Tv dinners they're goin' to my head
    Tv dinners my skin is turnin' red
    Twenty year old turkey in a thirty year old tin
    I can't wait until tomorrow.... And thaw one out again oh yeah!
    
    Tv dinners I'm feelin' kinda rough
    Tv dinners this one's kinda tough
    I like the enchiladas and the teriaki too
    I even like the chicken if.... The sauce is not too blue.
    
    And they're mine, all mine, oh yeah
    And they sure are fine.
    Gotta have 'em
    Gimme somethin' now.
    
    
    Intro
    ----------------------|---------------------|--------------------|
    -13--------------9/10-|-13-------------9/10-|-13------------9/10-|
    ----10--------10-9/10-|----10----------9/10-|---10-------10-9/10-|
    -------12-12----------|-------12-12---------|------12-12---------|
    ----------------------|---------------------|--------------------|
    ----------------------|---------------------|--------------------|
    
    ------------------------|
    -------------------9/10-|
    -13b12-10----------9/10-|
    -------------10h12------|
    ----------12------------|
    ------------------------|
    
    
    
    For the rest of the song, the rhythm guitar repeats this measure:
    
    -----------------|
    -----------------|
    -7-7---7---------|
    -7-7---7---------|(these are, of course, D5 power chords)
    -5-5---5---------|
    -----------------|
    
    
    After the first verse, play
    --------------------|--------------------|
    --------------------|--------------------|
    ---------------9/10-|---------------9/10-|
    -12-12---12---------|-12-12---12---------|
    -12-12---12---------|-12-12---12---------|
    -10-10---10---------|-10-10---10---------|
    
    and then do the second verse just like the first
    
    --------------------|----------------|--------------|-----------------|
    --------------------|----------------|--------------|-----------------|
    --------------------|----------------|--------------|-----------------|
    -3h5-3------3-------|------------3b5-|--------------|-------------3b--|
    -------3h5----------|-5---5---5------|--5----5-5-3--|--5----5-5-5-----|
    --------------5⁄3-1-|----------------|--------------|-----------------|
    
    ---------------|-------------------|----------------|-------------------|
    ---------------|-------------------|----------------|-------------------|
    ---------------|-------------------|----------------|-------------------|
    -----------3---|-----3b--3b--------|-------------3b-|-------------------|
    --5-5----5---3-|---5----------5--3-|--5--5----5-----|--5-5-3------------|
    ---------------|-------------------|----------------|--------5-5-5b6--5-|
    
    --------------------|----------------|---------------|---------------------|
    --------------------|----------------|---------------|---------------------|
    --------------------|----------------|---------------|---------------------|
    --------------------|-9-7-9-9--------|-------------7-|-9-------------------|
    ---3-5-3-5b6b5--3-5-|----------9⁄7-5-|---7-5----7----|-----------5-7-7b8b7-|
    -5------------------|----------------|-7-------------|-----5-5-7-----------|
    
    --------------------|-----------------|-------------------|
    --------------------|-----------------|-------------------|
    --------------------|-----------------|-------------------|
    --------------------|-----------------|-------------------|
    -5-7-7-5-7b8--5-7⁄5-|-5-3-5---5-5-5-5-|----3-5-3--------5-|
    --------------------|-----------------|---------------1---|
    
    
    start singing 3rd verse
    --------------------|-----------------|-------------------|
    --------------------|-----------------|-------------------|
    --------------------|-----------------|-------------------|
    ---------3----------|-----------------|-------------------|
    ---5p3-5-----5--5---|---3--5--5-------|--5--------(5)p3---|
    --------------------|-----------------|-------------------|
    
    After "if the sauce in not too blue", those 5 unplayable notes are repeated
    and then go to
    and they`re
    --------------------|
    --------------------|
    --------------------|
    -3h5-3--------------|
    -------3h5--3-------|
    --------------5⁄3-1-|
    
    mine all mine ~~~~
    --------------------|-----------------|-------------------|
    --------------------|-----------------|-------------------|
    --------------------|-----------------|-------------------|
    -------7------------|-----------------|-------------------|
    --------------------|-----------------|---------------3-5-|
    --------------------|-----------------|-------------------|
    
    and they sure are fine whoa
    --------------------|-----------------|-------------------|
    --------------------|-----------------|-------------------|
    --------------------|-----------------|-------------5-5-7-|
    --------------------|-----------------|-------------------|
    ------------------5-|-------------5-5-|-------------------|
    -------5-----5------|--------5--------|-------------------|
    
    
    gotta have em gimme some now honey
    G5 F5 D5
    --------------------|-----------------|-------------------|
    --------------------|-----------8-8-8-|-8b9b8-6-----------|
    ----------------7-7-|-----------------|----------7--------|
    --------------------|-----------------|-------------------|
    --------------------|-----------------|-------------------|
    --------------------|-----------------|-------------------|
    
    
    G5 F5 D5
    --------------------|-----------------|-------------------|
    --------------------|-----------------|-------------------|
    --------------------|-----------------|-------------------|
    --------------------|---------------3-|-5-5-3-5b6---------|
    ---3-5-5------------|-----------------|-------------------|
    --------------------|-----------------|-------------------|
    
    G5 F5 D5 G5 F5 D5
    --------------------|-----------------|-------------------|
    --------------------|-----------------|-------------------|
    --------------------|-----------------|-------------------|
    ------------------3-|-5-5-3-----------|----------------12-|
    --------------------|-------5---------|-------------------|
    --------------------|-----------------|-------------------|
    
    ---------------------------|-------------------10----------|
    -------10----13------------|----------10-------10----------|
    -10h12----10-----10-10-----|-10h11-11-11-11-11----10h11-11-|
    -----------------------12--|-------------------------------|
    ---------------------------|-------------------------------|
    ---------------------------|-------------------------------|
    
    ----------10----------------|----------------------|
    -10-10-10----13-13-13h14-13-|-13-13-13-13-13-13----|
    -11-11-11----12-12-12----12-|-12-12-12-12-12-12-12-|
    ----------------------------|----------------------|
    ----------------------------|----------------------|
    ----------------------------|----------------------|
    
    -----------------|-------------------|---------------------|
    -----------------|-------------------|---------------------|
    -10--------------|---10-10--------10-|-12b14-10-12-10------|
    ------10h12--10--|---------12p10-----|---------------------|
    ----12-----------|-------------------|---------------------|
    -----------------|-------------------|---------------------|
    
    ---------------------------|---------------------------|
    ---------------------------|----13----13---------------|
    ------10-12-10-12----12b14-|-12----12----12---10-------|
    ---12-------------12-------|---------------------12-12-|
    ---------------------------|---------------------------|
    ---------------------------|---------------------------|
    
    -----------10---------|-13b-10---------------------|--------------------|
    -----10-13----/15-----|--------10-13---------------|--------------------|
    -/11------------------|--------------14⁄12-10------|--------------------|
    ----------------------|-----------------------12---|-12-12----12--------|
    ----------------------|----------------------------|--------------------|
    ----------------------|----------------------------|--------------------|
    

    Тональность:

    Нет текста!



    Назад
    Рекомендуем посмотреть другие песни исполнителя «ZZ Top»:

    • Комментарии Facebook ()
    • Комментарии ВКонтакте



    Добавить в Избранное Браузера
    Сохранить здесь Очистить


    x

    0


    +
    -

    +
    -

    -

    Авторизация





    Зарегистрироваться

    M

    Дата и время

    • 03:36:49
       

    Социальные ссылки


    Наши приложения

    • Muzbank App Play Market
    • Muzbank Amazon App