MUZBANK


МУЗЫКАЛЬНО-ИНФОРМАЦИОННЫЙ БАНК





7 • Городу на Неве 2 (аккорды и текст - chords & lyrics)


568

Print

Видео «Городу на Неве 2 (7Б)»

Видео клипы к песне подбираются автоматически сайтом youtube. Возможны некоторые несоответствия клипов песне.

↑ Спрятать рекламу ↑





В основном песня играется оригинальным перебором:
-3-2-1--3-2-3.

ВСТУПЛЕНИЕ:

   Hm               A               Em
E|--------0---------------0---------------0---------|
B|------3-------3-------2-------2-------0-------0---|
G|----4-------4---4---2-------2---2---0-------0---0-|
D|--------------------------------------------------|
A|--2---------------0-------------------------------|
E|----------------------------------0---------------|

   Hm              A               Em
E|-------0---------------0---------------0----------|
B|-----3-------3-------2-------2-------0-------0----|
G|---4-------4---4---2-------2---2---0-------0---0--|
D|--------------------------------------------------|
A|-2---------------0--------------------------------|
E|---------------------------------0----------------|

   Hm
E|-------0---------|
B|-----3-------3---|
G|---4-------4---4-|
D|-----------------|
A|-2---------------|
E|-----------------|

КУПЛЕТ 1:

   D               A               Hm
E|-------3---------------0---------------0----------|
B|-----2-------2-------2-------2-------4-------4----|
G|---3-------3---3---2-------2---2---3-------3---3--|
D|-0------------------------------------------------|
A|-----------------0---------------2----------------|
E|--------------------------------------------------|
   Есть город на Неве, я там еще не разу не был.

    Hm
E|-------0----------
B|-----4-------4----
G|---3-------3---3--
D|------------------
A|-2----------------
E|------------------

  A                 Em              Hm
E|--------0---------------0---------------0---------|
B|------2-------2-------0-------0-------4-------4---|
G|----2-------2---2---0-------0---0---3-------3---3-|
D|--------------------------------------------------|
A|-0--------------------------------2---------------|
E|------------------0-------------------------------|
   Есть город на Неве, я там бываю во сне.

    Hm
E|-------0---------|
B|-----4-------4---|
G|---3-------3---3-|
D|-----------------|
A|-2---------------|
E|-----------------|

    E               E               D
E|--------0---------------0---------------3---------|
B|------0-------0-------0-------0-------2-------2---|
G|----1-------1---1---1-------1---1---3-------3---3-|
D|----------------------------------0---------------|
A|--------------------------------------------------|
E|--0---------------0-------------------------------|
    Санкт-Петербург, Петроград, Ленинград

   D
E|-------3---------|
B|-----2-------2---|
G|---3-------3---3-|
D|-0---------------|
A|-----------------|
E|-----------------|

   Em               A               Hm
E|--------0---------------0---------------0---------|
B|------0-------0-------2-------2-------4-------4---|
G|----0-------0---0---2-------2---2---3-------3---3-|
D|--------------------------------------------------|
A|------------------0---------------2---------------|
E|-0------------------------------------------------|
      Разводные мосты, живые каменные львы.

    Hm
E|-------0---------|
B|-----4-------4---|
G|---3-------3---3-|
D|-----------------|
A|-2---------------|
E|-----------------|

    E               E               Hm
E|--------0---------------0---------------0---------|
B|------0-------0-------0-------0-------4-------4---|
G|----1-------1---1---1-------1---1---3-------3---3-|
D|--------------------------------------------------|
A|----------------------------------2---------------|
E|--0---------------0-------------------------------|
    Зимним светом полярной звезды, отражением кладов

   Hm
E|-------0---------|
B|-----4-------4---|
G|---3-------3---3-|
D|-----------------|
A|-2---------------|
E|-----------------|
   со дна Невы

    Em              Am              E
E|--------0---------------0---------------0---------|
B|------0-------0-------2-------2-------0-------0---|
G|----0-------0---0---2-------2---2---1-------1---1-|
D|--------------------------------------------------|
A|------------------0-------------------------------|
E|--0-------------------------------0---------------|
    Звездный парад, мелодии белых ночей.

   E
E|-------0---------|
B|-----0-------0---|
G|---1-------1---1-|
D|-----------------|
A|-----------------|
E|-0---------------|

ПРИПЕВ:

D           A
Сказка во сне- |
Em         Hm  | 2раза.
Город на Неве. |

КУПЛЕТ 2:

Есть город на Неве, ему от роду триста лет.
Есть город на Неве, такого нет на всей земле.
Санкт-Питербург, Петроград, Ленинград
Город герой, во славу царей и вождей.
Зимним светом полярной звезды
Отражением кладов со дна Невы
Звездный порад, мелодии белых ночей.

ПРИПЕВ.

Есть город на Неве, я там еще не разу не был.
Есть город на Неве, я там бываю во сне.
...я там бываю во сне.
...бываю во сне.
...я там бываю во сне.
...во сне.
...там бываю во сне.

Тональность:

Это должно быть в ТОП-листе! - Топ-лист композиций



Назад
Рекомендуем посмотреть другие песни исполнителя «7Б»:

  • Комменты Fb ()
  • Комменты ВК



Добавить в Избранное Браузера
Сохранить здесь Очистить


x

0


+
-

+
-

-

Авторизация





Зарегистрироваться

M

Дата и время

  • 17:29:29
     

Социальные ссылки


Наши приложения

  • Muzbank App Play Market
  • Muzbank Amazon App