MUZBANK


МУЗЫКАЛЬНО-ИНФОРМАЦИОННЫЙ БАНК





AA-Ha • Take on Me (аккорды и текст - chords & lyrics)


1923

Print

Видео «Take on Me (A-Ha)»

Видео клипы к песне подбираются автоматически сайтом youtube. Возможны некоторые несоответствия клипов песне.

↑ Спрятать рекламу ↑





Intro chords:
Bm  E  A  D  D/C# x2

Bm  E  Bm  E

Intro riff:
e|-2-2-------------4-4-5-7-5-5-5-----2-2-2-0-0-2-0-|
B|-----3-----5-5-5---------------5-3---------------|
G|-------4-4---------------------------------------| x2
D|-------------------------------------------------|
A|-------------------------------------------------|
E|-------------------------------------------------|

e|-2-2-------------4-4-5-7-5-5-5-------------------|
B|-----3-----5-5-5---------------3---5-5-5-3-3-3---|
G|-------4-4-----------------------4---------------| 
D|-------------------------------------------------|
A|-------------------------------------------------|
E|-------------------------------------------------|

Verse:
Bm                  E
We`re talking away
     A                D     D/C#
Well i dont know what im to say
    Bm             E
Ill say it anyway
  A        D           D/C#
Today`s another day to find you
Bm           E
Shying away
F#m                    D
Ill be coming for your love, ok?

Chorus:
A      E    F#m D
Take   on   me (take on me)
A      E    F#m D
Take   me   on (take on me)
A      E    F#m   D
Ill    be   gone
            A       E    F#m  D 
In a day or two...

Verse: 
   Bm           E
So needless to say
   A              D       D/C# 
Im odds and ends, but ill be
Bm              E
Stumbling away
A                    D       D/C#
Slowly learning that life is ok
Bm            E
Say after me
F#m                 D        
Its no better to be safe than sorry

Chorus:   
A      E    F#m D
Take   on   me (take on me)
A      E    F#m D
Take   me   on (take on me)
A      E    F#m   D
Ill    be   gone
            A      E    F#m  D        
In a day or two...

Bridge:
C#m  G  C#m  G  Bm  E

e|-4-------4-------4-------4-------4-------4-------|
B|---2---2---2---2---2---2---2---2---2---2---2---2-|
G|-----1-------1-------1-------1-------1-------1---| 
D|-------------------------------------------------|
A|-------------------------------------------------|
E|-------------------------------------------------|

Pre-verse chords:
Bm  E  Bm  E
Bm  E  A  D  D/C# x2
Bm  E  Bm  E

Pre-verse riff:
e|-2-2-------------4-4-5-7-----------------4-4-5-7-|
B|-----3-----5-5-5---------7-7-------5-5-5---------|
G|-------4-4-------------------7-4-4---------------| 
D|-------------------------------------------------|
A|-------------------------------------------------|
E|-------------------------------------------------|

e|-2-2-------------4-4-5-7-5-5-5-----2-2-2-0-0-2-0-|
B|-----3-----5-5-5---------------5-3---------------|
G|-------4-4---------------------------------------| x2
D|-------------------------------------------------|
A|-------------------------------------------------|
E|-------------------------------------------------|

e|-2-2-------------4-4-5-7-5-5-5-------------------|
B|-----3-----5-5-5---------------3---5-5-5-3-3-3---|
G|-------4-4-----------------------4---------------| 
D|-------------------------------------------------|
A|-------------------------------------------------|
E|-------------------------------------------------|

Verse:
    Bm                       E
Oh, the things that you say
      A             D       D/C#
Yeah, is it life or just to play
   Bm             E
My worries away?
       A                  D      D/C#
You`re all the things ive got to remember
       Bm          E
You`re shying away
F#m               D
Ill be coming for you anyway

Chorus:
A      E    F#m D
Take   on   me (take on me)
A      E    F#m D
Take   me   on (take on me)
A      E    F#m    D
I`ll   be   gone
     A    E    F#m  D
In a day... 

Outro:
 A      E    F#m D
(Take   on   me) Take on me
 A      E    F#m D
(Take   me   on) Take on me
 A      E    F#m   D
 Ill    be   gone

      A    E    F#m  D     
 In a day...
 
A    E    F#m  D5


Bm E  A  D  D/C# F#m  C#m  G  D5  

2  0  0  2  2    2    4    3  5
3  0  2  3  3    2    5    3  3
4  1  2  2  2    2    6    4  2
4  2  2  0  4    4    6    5  0
2  2  0  x  4    4    4    5  0
x  0  x  x  x    2    x    3  x

Тональность:

Это должно быть в ТОП-листе! - Топ-лист композиций



Назад
Рекомендуем посмотреть другие песни исполнителя «A-Ha»:

  • Комменты Fb ()
  • Комменты ВК



Добавить в Избранное Браузера
Сохранить здесь Очистить


x

0


+
-

+
-

-

Авторизация





Зарегистрироваться

M

Дата и время

  • 15:26:04
     

Социальные ссылки


Наши приложения

  • Muzbank App Play Market
  • Muzbank Amazon App