MUZBANK



A MOST COMPLETE BANK OF MUSIC INFORMATION

МУЗЫКАЛЬНО-ИНФОРМАЦИОННЫЙ БАНК





AAC/DC • Big Gun 2 (аккорды и текст - chords & lyrics)


401

Print

Видео «Big Gun 2 (AC/DC)»

Видео клипы к песне подбираются автоматически сайтом youtube. Возможны некоторые несоответствия клипов песне.

↑ Спрятать рекламу ↑





Intro:
E|----------3b-----------|---------------------|----------3b----------|
B|-----------------5--3--|----5----5------3⁄---|-----------------5----|
G|-----------------------|---------------------|----------------------|
D|--2--2-----------------|---------------------|--2--2----------------|
A|--2--2-----------------|---------------------|--2--2----------------|
E|--0--0-----------------|---------------------|--0--0----------------|

|----------------------|----------3b-----------|---------------------|
|--5----3⁄-------------|-----------------5--3--|----5----5------3⁄---|
|----------------------|-----------------------|---------------------|
|----------------------|--2--2-----------------|---------------------|
|--------------5-------|--2--2-----------------|---------------------|
|-----------------5----|--0--0-----------------|---------------------|

                                               verse theme:
|----------3b----------|----------------------|------------------------|
|-----------------5----|--5----3⁄-------------|------------------------|
|----------------------|----------------------|------------------------|
|--2--2----------------|----------------------|------------------------|
|--2--2----------------|--------------5-------|-----2--5-------4-------|
|--0--0----------------|-----------------5----|--0----------5-------3--|
                                                   chord change up:
|------------------------|------------------------|------------------------|
|------------------------|------------------------|------------------------|
|------------------------|------------------------|------------------------|
|------------------------|------------------------|------------------------|
|--2----0--4-------------|-----2--5-------4-------|--2----0--4-------------|
|---------------3--5--3--|--0----------5-------3--|---------------3--5--3--|

|------------------------|------------------------|------------------------|
|------------------------|------------------------|------------------------|
|------------------------|------------------------|------------------------|
|-----2--5-------4-------|--2----0--4-------------|-----2--5-------4-------|
|--0----------5-------3--|---------------3--5--3--|--0----------5-------3--|
|------------------------|------------------------|------------------------|
                          chord change down:
|------------------------|------------------------|------------------------|
|------------------------|------------------------|------------------------|
|------------------------|------------------------|------------------------|
|--2----0--4-------------|------------------------|------------------------|
|---------------3--5--3--|-----2--5-------4-------|--2----0--4-------------|
|------------------------|--0----------5-------3--|---------------3--5--3--|

|------------------------|------------------------|-----------------------|
|------------------------|------------------------|-----------------------|
|------------------------|------------------------|--4----4--2----2--4----|
|------------------------|------------------------|--4----4--2----2--4----|
|-----2--5-------4-------|--2----0--4-------------|--2----2--2----2--2----|
|--0----------5-------3--|---------------3--5--3--|-----------------------|

|-----------------------|---------------------|---------------------|
|-----------------------|----------------3----|---------------------|
|----2----2--2--4--4----|--2------0------2----|----2------2----2----|
|----2----2--2--4--4----|--2------0------0----|----2------2----2----|
|----2----2--2--2--2----|--0------------------|----0------0----0----|
|-----------------------|---------3-----------|---------------------|
 chorus:
|----------3b-----------|---------------------|----------3b----------|
|-----------------5--3--|----5----5------3⁄---|-----------------5----|
|-----------------------|---------------------|----------------------|
|--2--2-----------------|---------------------|--2--2----------------|
|--2--2-----------------|---------------------|--2--2----------------|
|--0--0-----------------|---------------------|--0--0----------------|

|----------------------|----------3b-----------|---------------------|
|--5----3⁄-------------|-----------------5--3--|----5----5------3⁄---|
|----------------------|-----------------------|---------------------|
|----------------------|--2--2-----------------|---------------------|
|--------------5-------|--2--2-----------------|---------------------|
|-----------------5----|--0--0-----------------|---------------------|
                                                verse:
|-----------------------|----------------------|------------------------|
|-----------------------|----------------------|------------------------|
|-----------------------|----------------------|------------------------|
|----5--2---------------|----------------------|------------------------|
|------------5----------|----------------------|-----2--5-------4-------|
|-----------------5--3--|--5--3--0--0----------|--0----------5-------3--|

|------------------------|
|------------------------|
|------------------------|
|------------------------|
|--2----0--4-------------|
|---------------3--5--3--|

Тональность:

Это должно быть в ТОП-листе! - Топ-лист композиций



Назад
Рекомендуем посмотреть другие песни исполнителя «AC/DC»:

  • Комменты Fb ()
  • Комменты ВК



Добавить в Избранное Браузера
Сохранить здесь Очистить


x

0


+
-

+
-

-

Авторизация





Зарегистрироваться

M

Дата и время

  • 22:17:34
     

Социальные ссылки


Наши приложения

  • Muzbank App Play Market
  • Muzbank Amazon App
  • Muzbank Bitcoin13igjuWJj2R4cHiyZqP7Q3ggVvfXE9j82Q