MUZBANK


МУЗЫКАЛЬНО-ИНФОРМАЦИОННЫЙ БАНК





AAC/DC • Come And Get It (аккорды и текст - chords & lyrics)


683

Print

Видео «Come And Get It (AC/DC)»

Видео клипы к песне подбираются автоматически сайтом youtube. Возможны некоторые несоответствия клипов песне.

↑ Спрятать рекламу ↑





Intro:
e-------------------------------------
B-------------------------------------
G-------------------------------------
D--5---------7----5----------------- 4x
A--3--7-7-------------5-6-7--------
E-----5-5---------------------5-----


Main Riff:
e---------------------------------------
B---------------------------------------
G---------------------------------------
D--5---------7----5--------------------
A--3--7-7-------------5-6-7-----------
E-----5-5----------------------8--5---

Chorus:
e-------------------------
B------------------------
G--5-5-4-5-4--7--7------- 2x
D------------------------
A------------------------
E------------------------

e-------------------------
B-------------------------
G---7-7--6--7-6--9-9------
D------------------------- 2x *Second time with distortion
A-------------------------
E-------------------------

Intro verse 2:
E|---------------------------|---------------------------|
B|---------------------------|---------------------------|
G|--5--2-----2~---0----------|--5--2-----2~---0----------|
D|--5--2-------------0-1-2---|--5--2-------------0-1-2---|
A|--3--0--0----------------0-|--3--0--0----------------0-|
E|---------------------------|---------------------------|

picking up...
E|---------------------------|-------------|
B|---------------------------|-------------|
G|--5--2-----2~---0----------|--5--2-----2-|
D|--5--2-------------0-1-2---|--5--2-----2-|
A|--3--0--0----------------0-|--3--0--0--0-|
E|---------------------------|-------------|

hell no distance...
E|---------------------------|-------------------|---------------------------|
B|---------------------------|-------------------|---------------------------|
G|-----------2~---0----------|-------------------|-----------2~---0----------|
D|--5--2-------------0-1-2---|-------------------|--5--2-------------0-1-2---|
A|--3--0--0----------------3-|--0----------------|--3--0--0----------------3-|
E|---------------------------|-------------------|---------------------------|

burning down... don't you...
E|-------------------|---------------------------|----|
B|-------------------|---------------------------|----|
G|-------------------|-----------2~---0----------|----|
D|-------------------|--5--2-------------0-1-2---|----|
A|--0----------------|--3--0--0----------------3-|--0-|
E|-------------------|---------------------------|----|

these are...
E|------------------------|-------------------|-----------------------|
B|------------------------|-------------------|-----------------------|
G|--5--5-----5---------5--|--5----------------|--5--5-----5---------5-|
D|--7--7--5--7----5----7--|--7----------------|--7--7--5--7----5----7-|
A|--5--5--5--5----5----5--|--5----------------|--5--5--5--5----5----5-|
E|--------3-------3-------|-------------------|--------3-------3------|

don't think... I've got my...
E|-------------------|------------------------|----|
B|-------------------|------------------------|----|
G|--5----------------|--7--7-----7---------7--|--7-|
D|--7----------------|--9--9--7--9----7----9--|--9-|
A|--5----------------|--7--7--7--7----7----7--|--7-|
E|-------------------|--------5-------5-------|----|

upon my... ...want it come and get it
E|------------------------|-------------------|--------------------------|
B|--3--3--2--3----2-------|-------------------|--------------------------|
G|--2--2--2--2----2-------|-------------------|----------2~---0----------|
D|--0--0--2--0----2----2--|--2----------------|--5--2------------0-1-2---|
A|--0--0--0--0----0----2--|--2----------------|--3--0------------------3-|
E|---------------------0--|--0----------------|--------------------------|

(come and get it) want it come and get it (come and get it)
E|-------------------|--------------------------|----|
B|-------------------|--------------------------|----|
G|-------------------|----------2~---0----------|----|
D|-------------------|--5--2------------0-1-2---|----|
A|--0----------------|--3--0------------------3-|--0-|
E|-------------------|--------------------------|----|

want it come and get it (come and get it) want it come and get it
E|--------------------------|-------------------|--------------------------|
B|--------------------------|-------------------|--------------------------|
G|----------2~---0----------|-------------------|----------2~---0----------|
D|--5--2------------0-1-2---|-------------------|--5--2------------0-1-2---|
A|--3--0------------------3-|--0----------------|--3--0------------------0-|
E|--------------------------|-------------------|--------------------------|

2nd verse:
E|-------------|
B|-------------|
G|--5--2-----2-|
D|--5--2-----2-|
A|--3--0--0--0-|
E|-------------|

after 2nd chorus to solo part:

want it come and get it
E|----------------------|----------------------|-------------|
B|----------------------|----------------------|-------------|
G|----------------------|--5--2-----2----------|-----------2-|
D|--5--2------5--2------|--5--2-----2----------|-----------2-|
A|--3--0------3--0------|--3--0--0--0----------|--3--0--0----|
E|----------------------|----------------------|-------------|

E|----------------------|-------------------------|-------------|
B|----------------------|-------------------------|-------------|
G|-----------2----------|-----------2-------------|-----------2-|
D|-----------2----------|-----------2-------------|-----------2-|
A|--3--0--0--0----------|--3--0--0--0----0--0--0--|--3--0--0--0-|
E|----------------------|-------------------------|-------------|

solo:
E|----------------------|----------------------|-------------|
B|----------------------|----------------------|-------------|
G|----------------------|----------------------|-------------|
D|--5--2--2--2----------|--5--2--2--2----------|--5--2--2--2-|
A|--5--2--2--2----------|--5--2--2--2----------|--5--2--2--2-|
E|--3--0--0--0----------|--3--0--0--0----------|--3--0--0--0-|

E|----------------------|------------------------|------------------|
B|----------------------|------------------------|----------------3-|
G|----------------------|-----2--2-------2--2----|-----2--2--2----2-|
D|--5--2--2--2----------|--5--2--2----5--2--2----|--5--2--2--2----0-|
A|--5--2--2--2----------|--3--0--0----3--0--0----|--3--0--0--0------|
E|--3--0--0--0----------|------------------------|------------------|

E|------------------------|-----------------------|---------------------|
B|------------------------|----------------3------|---------------------|
G|-----2--2-------2--2----|-----2--2--2----2------|-----2--2-------2--2-|
D|--5--2--2----5--2--2----|--5--2--2--2----0------|--5--2--2----5--2--2-|
A|--3--0--0----3--0--0----|--3--0--0--0-----------|--3--0--0----3--0--0-|
E|------------------------|----------------2------|---------------------|

E|-----------------------|------------------------|------------------------|
B|----------------3------|------------------------|------------------------|
G|-----2--2--2----2------|--5--5-----5---------5--|--5----5--5--5--5--5--5-|
D|--5--2--2--2----0------|--7--7--5--7----5----7--|--7----7--7--7--7--7--7-|
A|--3--0--0--0-----------|--5--5--5--5----5----5--|--5----5--5--5--5--5--5-|
E|-----------------------|--------3-------3-------|------------------------|

want it come and
E|------------------------|-------------------|---------------------|
B|------------------------|-------------------|---------------------|
G|--7--7-----7------------|-------------------|---------------------|
D|--9--9--7--9----7----2--|--2----------------|--5--2---------------|
A|--7--7--7--7----7----2--|--2----------------|--3--0----------5--7-|
E|--------5-------5----0--|--0----------------|----------------3--5-|

get it want it come and get it
E|--------------------|----------------------|-------|
B|--------------------|----------------------|-------|
G|--------------------|----------------------|-------|
D|--5--2--------------|--5--2----------------|--5--2-|
A|--3--0--------------|--3--0----------5--7--|--3--0-|
E|--------------------|----------------3--5--|-------|



Picking up the sleaze in my car
Hell no distance too far
Burning down the road in the night
Don't you scold me or I'll bite

These are the finer things in life
Don't think you live in paradise
I've got my filly wrapped in red
Upon my double decker bed

If you want it come and get it (come and get it)
If you want it come and get it (come and get it)
If you want it come and get it (come and get it)
If you want it come and get it

Suckin' up the juice in the bar
Downin' every shooter so far
Checkin' out the girls what a sight
If you gonna blow me do it right

These are the finer things in life
Don't think you live in paradise
I've got my filly wrapped in red
Upon my double decker bed

If you want it come and get it (come and get it)
If you want it come and get it (come and get it)
If you want it come and get it (come and get it)
If you want it come and get it

Come and get it

Said if you want it come and get it
If you want it come and get it, yeah
Now listen (come and get it)
If you want it come and get it (come and get it)
If you want it come and get it (come and get it)
I said If you want it (come and get it)
If you want it (come and get it)
If you want it
If you want it
If you want it come and get it
Come and get it right here

Тональность:

Это должно быть в ТОП-листе! - Топ-лист композиций



Назад
Рекомендуем посмотреть другие песни исполнителя «AC/DC»:

  • Комменты Fb ()
  • Комменты ВК



Добавить в Избранное Браузера
Сохранить здесь Очистить


x

0


+
-

+
-

-

Авторизация





Зарегистрироваться

M

Дата и время

  • 14:16:37
     

Социальные ссылки


Наши приложения

  • Muzbank App Play Market
  • Muzbank Amazon App