MUZBANK


МУЗЫКАЛЬНО-ИНФОРМАЦИОННЫЙ БАНК





AAC/DC • Dirty Deeds Done Dirt Cheap 2 (аккорды и текст - chords & lyrics)


451

Print

Видео «Dirty Deeds Done Dirt Cheap 2 (AC/DC)»

Видео клипы к песне подбираются автоматически сайтом youtube. Возможны некоторые несоответствия клипов песне.

↑ Спрятать рекламу ↑





[E] [G5] [E] [A5] [E] [D5/A] [E]
[D5]If you're [E] havin' trouble with the high school head
He's givin' you the blues [D] [E]
You wanna graduate but not in 'is bed
Here's what you gotta do [D] [E]
Pick up the phone
I'm always home, call me anytime
[D] Just ring [E] three six [D]two, [E]four three six [D] o [E]
I lead a life [D]of crime [E]

Chorus:
[A5]Dirty deeds done [G5]dirt [A5]cheap
[E]Dirty deeds done [D] dirt [E] cheap
[A5]Dirty deeds done [G5]dirt [A5]cheap
[E]Dirty deeds they're done dirt cheap
Dirty deeds they're done dirt cheap[D] [E]

You got problems in your life of love
You got a broken heart [D] [E]
He's double dealin' with your best friend
That's when the tear drops start, fella [D] [E]
Pick up the phone, I'm here alone, or make a social call [D] [E]
Come right in [D] [E], forget about him [D] [E]
We'll have ourselves [D]a ball [E]

Chorus

Break
[B] [E], per intro

If you got a lady and you want her gone
But you ain't got the guts [D] [E]
She keeps naggin' at you night and day
Enough to drive you nuts [D] [E]
Pick up the phone, leave her alone
It's time you made a stand [D] [E]
For a fee[D] [E] I'm happy to be [D] [E]
Your back [D] door [E] man. Whoo!

Chorus

Concrete shoes[G5] [E], cyanide [A5] [E], T. N. T.
[E] Done [D] dirt [E] cheap
Neck-ties [G5] [E], contracts [A5] [E], high voltage
[E] Done [D] dirt [E] cheap

Dirty deeds [G] [E] [A] [E] )
[E] Done [D] dirt [E] cheap ) Repeat
They're ready to send [A]him on [E] the cruise



-----------2-----2------|-----------------------------------------------------
-----0-----2-----3------|-----------------------------------------------------
-----0-----2-----2------|-----------------------------------------------------
-2---0--2--2--2-----2---|-----------------------------------------------------
-2------2-----2-----2---|-----------------------------------------------------
------------------------|-----------------------------------------------------
Intro, do four times

-2--2--2-----2--2--2----|-----------------------------------------------------
-3--3--3-----3--3--3----|-----------------------------------------------------
-2--2--2-----2--2--2----|-----------------------------------------------------
----------2-----------2-|-----------------------------------------------------
----------2-----------2-|-----------------------------------------------------
------------------------|-----------------------------------------------------
Chorus, Do a whole bunch, eight counts in between, until he tells phone #

--------------------2---|-----------------------------------------------------
-2----2-0-2---------3---|-----------------------------------------------------
-2----2-0-2---------2---|-----------------------------------------------------
-2----2-0-2---2---2---2-|-----------------------------------------------------
--------------2---2---2-|-----------------------------------------------------
------------------------|-----------------------------------------------------
"Dirty Deeds..." That is about it, ummm there is this thin like this

------------------------------------------------------------------------------
------------------------------------------------------------------------------
------------------------------------------------------------------------------
-2-2-2-2-2--------------------------------------------------------------------
-2-2-2-2-2--------------------------------------------------------------------
------------------------------------------------------------------------------
where he does Em 5 times and then slaps his hand on the pickups if u noe

------------------------------------------------------------------------------
------------------------------------------------------------------------------
------------------------------------------------------------------------------
------------------------------------------------------------------------------
------------------------------------------------------------------------------
------------------------------------------------------------------------------
wut i meen


SOLO

e|--------------|--------|------------------------|-----------------|
B|--------------|--------|------------------------|-----10(B)~~~----|
D|--6(b)--6(b)--|--------|-----9(B)---9(B)--9--7--|--7--------------|
G|--------------|--9~~~--|--7---------------------|-----------------|
A|--------------|--------|------------------------|-----------------|
e|--------------|--------|------------------------|-----------------|


e|-------------|-----------------------------------|------------------------|
B|--10(B)--10--|-----------------------------------|------------------------|
D|-------------|-----------------------------------|------------------------|
G|-------------|--9--9---9--9--9--9---9--9---9--9--|--9---9---9---9---9--9--|
A|-------------|-----------------------------------|------------------------|
e|-------------|-----------------------------------|------------------------|
> > > > >


e|---------------------|--7-10-7-------------------------------------|
B|---------------------|---------10----10----------------------------|
D|---------------------|------------11----11-9-11-9---9--7-----9--7--|
G|--9---9---7---7---9--|------------------------------------9--------|
A|---------------------|---------------------------------------------|
e|---------------------|-----------This part is actually played--|


e|--------------------------|---------------------------|
B|--------------------------|--here the fun begins------|
D|--------------------9(B)--|--The pattern is just a----|
G|--9--7-----9--9--9--------|--pull offs sequence-------|
A|--------9-----------------|---------------------------|
e|-----quite--fast-!!!------|---------------------------|

To save space I'm just indicating the finger patterns. They are all pull
offs. Keep it flowing throughout.

e|--(8--5--0)---(9--6--0)---(10--7--0)-|-(11--8--0)---(12--9--0)-------|
B|-------------------------------------|-------------------------------|
D|---Repeat each pattern 8 times-------|-From here to the end of the---|
G|-------------------------------------|-sequence repeat 4 times each--|
A|-------------------------------------|-pattern-----------------------|
e|-------------------------------------|-------------------------------|


e|--(13--10--0)---(14--11--0)---(15--12--0)---(16--13--0)---(17--14--0)--|
B|-----------------------------------------------------------------------|
D|-----------------------------------------------------------------------|
G|-----------------------------------------------------------------------|
A|-----------------------------------------------------------------------|
e|-----------------------------------------------------------------------|


e|--(18--15--0)--|--17(B)---|
B|---------------|----------|
D|---------------|----------|
G|---------------|----------|
A|---------------|----------|
e|---------------|----------|



Тональность:

Это должно быть в ТОП-листе! - Топ-лист композиций



Назад
Рекомендуем посмотреть другие песни исполнителя «AC/DC»:

  • Комменты Fb ()
  • Комменты ВК



Добавить в Избранное Браузера
Сохранить здесь Очистить


x

0


+
-

+
-

-

Авторизация





Зарегистрироваться

M

Дата и время

  • 22:43:47
     

Социальные ссылки


Наши приложения

  • Muzbank App Play Market
  • Muzbank Amazon App