MUZBANK


МУЗЫКАЛЬНО-ИНФОРМАЦИОННЫЙ БАНК





AAC/DC • Dog Eat Dog (аккорды и текст - chords & lyrics)


408

Print

Видео «Dog Eat Dog (AC/DC)»

Видео клипы к песне подбираются автоматически сайтом youtube. Возможны некоторые несоответствия клипов песне.

↑ Спрятать рекламу ↑





Tune down a halfstep (Eb)

E5 A5 D5 Fig.1 E5 A5 D5 D5 A5
e ------------|------------| e ---------------|--------------|
b ---------3--|------------| b ------------3--|--------3-----|
g -----2---2--|------------| g ------2-----2--|--------2--2--| Patt. 2
D -2---2---0--|------------| D -2----2-----0--|--------0--2--|
A -2---0------|------------| A -2----0-0-0----|-----------0--|
E -0----------|------------| E -0--0----------|0-0-0-0-------|

A5 D5 G5 D5
e --------------------3------------------------------------|
b -----------3--------3---------------------3---3----------|
g --2--------2--------0---------------------0---2----------| Patt. 3
D --2--------0--------0-----------------0---0---0----------|
A --0--0--0-----0--0---------------------------------------|
E --------------------3-----3---3---3---3---3--------------|


with Patt. 2 (3 x) E5 A5 D5 A5 E5 A5 D5
1. Well it`s a dog eat dog, eat cat too.
A5 E5 A5 D5 A5 E5 A5 D5 A5
So fish eat frog, I eat you.
w/Patt. 3
Business Man, when you make a deal, Do you know you can trust?
w/Patt. 2
Do sign your life away, Do you write your name in dust? Hey,Hey,Hey!

B5 Ev`ry dog has his day A5
e --------------|----------------------|-------------|
b --------------|----------------------|-------------|
g -4--4-4--4-4--|----------------------|-2--2-2--2-2-|
D -4--4-4--4-4--|----------------------|-2--2-2--2-2-|
A -2--2-2--2-2--|----------------------|-0--0-0--0-0-|
E --------------|----------------------|-------------|
Fig.1 E5 A5 D5 E5 A5 D5
It`s a dog eat dog Dog eat dog

Guitar Solo
A5
e ---------------------------------------------------------|
b ----17----17⁄----17----17----17⁄----17----17----17----17-|
g /18----18----/18----18----18----/18----18----18----18----|
D ---------------------------------------------------------|
A ---------------------------------------------------------|
E ---------------------------------------------------------|
D5 A5
e ---------------------------------------------------------|
b -------19----19----17----17----17----17-------17----17---|
g -18/19----19----19----18----18----18----18/18----18----18|
D ---------------------------------------------------------|
A ---------------------------------------------------------|
E ---------------------------------------------------------|
D5
e ---------------------------------------------------------|
b -----17----------17----17----17----17----17----19--------|
g ⁄/18----18-18-18---/18----18----18----18---/19----19-19--|
D ---------------------------------------------------------|
A ---------------------------------------------------------|
E ---------------------------------------------------------|
A5 E5
e ---------------------------------------------------------|
b ----17----17---------------------------------------------|
g -18----18----18⁄--------12----12--------12----12-12⁄-----|
D ----------------⁄-14-13----13----13⁄/13----13--------13--|
A ---------------------------------------------------------|
E ---------------------------------------------------------|
A5 E5 E5
e -----------------------------------12--------------------|
b 12-------12--------14--------12-----------12--------12---|
g ---13-13----13-/14----14--13----13-----13----13⁄/13----13|
D ---------------------------------------------------------|
A ---------------------------------------------------------|
E ---------------------------------------------------------|
A5 A5 E5
e ---------------------------------------------------------|
b ---------12-12--12------12----12----12----12----14----14-|
g ⁄-13⁄-13----13--13--/13----13----13----13----14----14----|
D ---------------------------------------------------------|
A ---------------------------------------------------------|
E ---------------------------------------------------------|
A5
e ---------------------------------------------------------|
b ---12----12----12-------17----17-17⁄--------17----17-----|
g 13----13----13----13-18----18----18⁄-----18----18----18⁄-|
D ---------------------19----19----19⁄-/19-----------------|
A ------------------------------------/--------------------|
E ---------------------------------------------------------|
D5 A5
e ---------------------------------------------------------|
b ------17----17----17----17----19----19----17----17----17-|
g 17/18----18----18----18----18----19----18----18----18----|
D ---------------19----19----19----------19----------------|
A ---------------------------------------------------------|
E ---------------------------------------------------------|

e ---------------------------------------------------------|
b ---------17----17----------17----17----17----17----17----|
g 18-17-18----18----18⁄17-18----18----18----18----18----18-|
D ---------------------------------------------------------|
A ---------------------------------------------------------|
E ---------------------------------------------------------|
D5 A5 E5 A5 D5 E5 A5 D5 (with Patt.1)
e ---------------------------------|---------|--------------|
b 17----17----19-------17----17----|---------|--------------|
g ---18----19----19-18----18-------|---------|--------------|
D ------------------------------19⁄|-------b-|-------b~~~~~~|
A ---------------------------------|------3-5|------3-5-----|
E ---------------------------------|---------|--------------|

Тональность:

Это должно быть в ТОП-листе! - Топ-лист композиций



Назад
Рекомендуем посмотреть другие песни исполнителя «AC/DC»:

  • Комменты Fb ()
  • Комменты ВК



Добавить в Избранное Браузера
Сохранить здесь Очистить


x

0


+
-

+
-

-

Авторизация





Зарегистрироваться

M

Дата и время

  • 23:55:09
     

Социальные ссылки


Наши приложения

  • Muzbank App Play Market
  • Muzbank Amazon App