MUZBANK


МУЗЫКАЛЬНО-ИНФОРМАЦИОННЫЙ БАНК





AAC/DC • DT (аккорды и текст - chords & lyrics)


516

Print

Видео «DT (AC/DC)»

Видео клипы к песне подбираются автоматически сайтом youtube. Возможны некоторые несоответствия клипов песне.

↑ Спрятать рекламу ↑






AC DC - DT
From the CD Who Made Who,
And the Maximum Overdrive soundtrack.

Tuning : Standard

Fill 1
|----------------------------------|
|----------------------------------|
|---5--5--3--5/---8------5--2------|
|---5--5--3--5/---8--8---------3---|
|---3--3--3--3/------8-------------|
|----------------------------------|

Fill 2
|----------------|
|----------------|
|---5--5--3--5---|
|---5--5--3--5---|
|---3--3--3--3---|
|----------------|

Fill 3
|--------------------------------------------|
|--------------------------------------------|
|----------5-------------------3-------------|
|----------5---------3---------3---------3---|
|----------3---1-----3---------1---------3---|
|---1--3----------3--1---1--3------1--3--1---|

Fill 4
|----------------------|
|----------------------|
|---------5--5--3--5---|
|---------5--5--3--5---|
|---------3--3--3--3---|
|---1--3---------------|

Order : 
Fill 1 (x4)
Fill 2 (x4)
Fill 3 (x2)
Fill 4 (x1)
Fill 2 (x2)
Fill 1 (x4)
Fill 2 (x1)
Fill 1 (x10) (Really quiet)
 



/Full version/




  
        Intro  00:09-00:27  (play four times)
e---------------------------------------|
b-----------------------4---3-----------|
g-5---5--3---5\------3--3---3----5-2----|
d-5---5--3---5\---5------------------3--|
a-3---3--3---3\-------------------------|
e---------------------------------------|

        Second riff 00:28-00:43
e-----------------------------------------------------|
b-----------------------------------------------------|
g-5---3--5\-----5---3--5\-----5---3--5\-----5---3--5\-|
d-5---3--5\-----5---3--5\-----5---3--5\-----5---3--5\-|
a-3---3--3\-----3---3--3\-----3---3--3\-----3---3--3\-|
e-----------------------------------------------------|

        Small Drum Fill 00:44-00:45  

        Third Riff 00:46-01:05   
e----------------------------------------------------------------------|
b----------------------------------------------------------------------|
g----------------------------------------------------------------------|
d----------------------------------------------------------------------|
a---1-3----1------------1---------------1-3----1------------1----------|
e-3----------3-1----1-3------1-3-1----3----------3-1----1-3------1-3-1-|

         Fourth Riff 01:06-01:12 
e---------------------------------------|
b---------------------------------------|
g-5---3--5\-----5---3--5\-----5---3--5\-|
d-5---3--5\-----5---3--5\-----5---3--5\-|
a-3---3--3\-----3---3--3\-----3---3--3\-|
e---------------------------------------|


         Fifth Riff 01:14-01:33
e------------------------------------------------------------------------|
b------------------------------------------------------------------------|
g------------------------------------------------------------------------|
d------------------------------------------------------------------------|
a---1-3----1------------1---------------1-3----1------------1------------|
e-3----------3-1----1-3------1-3-1----3----------3-1----1-3------1-3-1---|


         SOLO 01:34-01:52(The intro is played under the solo by Malcom)
e-----------------------------------------13b15--11---------------hb--------
b-11b13--11b13----11b13----11-------------------------13---18b20-(20)-18b20-
g-----------------------------10b12-10b12-----------------------------------
d---------------------------------------------------------------------------
a---------------------------------------------------------------------------
e---------------------------------------------------------------------------


--hb---------hb----------------------------------------------------15b18--
-(20)-18b20-(20)-18b20\--13-15b16---13----13------13-------13--13---------
-----------------------------------------------------15b17----------------
--------------------------------------------------------------------------
--------------------------------------------------------------------------
--------------------------------------------------------------------------


---15--13----------15-------15-------15-------15-------15--18-----15--------|
----------16-18b20----18b20----18b20----18b20----18b20----------------16p13-|
----------------------------------------------------------------------------|
----------------------------------------------------------------------------|
----------------------------------------------------------------------------|
----------------------------------------------------------------------------|

           
 Song blasts out with what appears to be the end. 01:53-01:54
e-----------
b-----------
g-5---3--5\-
d-5---3--5\-
a-3---3--3\-
e-----------

                Short Pause 01:55-01:57

Then continues with sixth riff(Play until the fade out at the end)softly
01:58-end   
e---------------------------------------|
b---------------------------------------|
g-----------------------4---3-----5-2---|
d-5---5--3---5----------3---3---------3-|
a-5---5--3---5---3---3--5---3-----------|
e---------------------------------------|
Listen to "Who Made Who album."

Тональность:

Это должно быть в ТОП-листе! - Топ-лист композиций



Назад
Рекомендуем посмотреть другие песни исполнителя «AC/DC»:

  • Комменты Fb ()
  • Комменты ВК



Добавить в Избранное Браузера
Сохранить здесь Очистить


x

0


+
-

+
-

-

Авторизация





Зарегистрироваться

M

Дата и время

  • 22:26:21
     

Социальные ссылки


Наши приложения

  • Muzbank App Play Market
  • Muzbank Amazon App