MUZBANK


МУЗЫКАЛЬНО-ИНФОРМАЦИОННЫЙ БАНК





AAC/DC • Evil Walks (аккорды и текст - chords & lyrics)


530

Print

Видео «Evil Walks (Ac Dc)»

Видео клипы к песне подбираются автоматически сайтом youtube. Возможны некоторые несоответствия клипов песне.

↑ Спрятать рекламу ↑





Black shadow hangin' over your shoulder
Black mark up against your name
Your green eyes couldn't get any colder
There's bad poison runnin' thru your veins
Evil walks behind you
Evil sleeps beside you
Evil talks arouse you
Evil walks behind you

Black widow weavin' evil notion
Dark secret's bein' spun in your web
Good men goin' down in your ocean
They can't swim cos their tied to your bed
Evil walks behind you
Evil sleeps beside you
Evil talks arouse you
Evil walks behind you
You're just crying wolf
I sometimes wonder where you park your broom
Oh black widow

C'mon weave your web
Down in your ocean
You got 'em tied to your bed
With your dark dark secret's
And your green green eyes
You black widow

Evil, walks behind you
Evil, sleeps beside you
Evil, talks arouse you
Evil, walks behind you
Evil walks behind you
Evil sleeps beside you
Evil talks arouse you
Evil walks behind you

Evil sleeps beside you
Evil talks arouse you
Evil walks behind you
Evil walks

You're so bad




Bass Tab of Evil Walks by AC/DC
Standard Tuning

(Intro)
G:------------------------|
D:------------------------|
A:------------------------|
E:0-0----0-0----0-0----0-0|

G:------------------------------|
D:------------------------------|
A:------------------------------|
E:5-3--0-3--3--5-5--0-3--3-3-3-5|

G:---------------------|
D:---------------------|  x5
A:---------------------|
E:0(8)--5(8)--0(8)--5(8)

G:--------------|
D:--------------|
A:------4-5--5-0|
E:0-0-0---------|

G:--------------|
D:----4-5-5-0---|  x4
A:5-5----------5|
E:--------------|

G:----------------------|
D:----------------------|  x2
A:----------------------|
E:0(8)--5(8)--0(8)--5(8)|

G:-----------------------------|
D:-----------------------------|
A:----4h5h7p 5p40--------------|
E:0(8)------------0-0-0-0-3-3-5|

(Chorus)
G:--------------|
D:----4-5--5----|  x4
A:7-7--------5-0|
E:--------------|

(During Solo)
G:------------------------|
D:------------------------|
A:------------------------|
E:0-0-0-0-0-0-0-0--5-5-3-3|

G:------------------------|
D:------------------------|
A:------------------------|
E:0-0----0-0----0-0----0-0|

G:--------------------------------|
D:--------------------------------|
A:-----------5-7-------5-7--------|
E:0-0--0-0-0-----0-0-0-----5-3-0-0|

G:--------------------------------|
D:--------------------------------|
A:--------------------------------|
E:0-0----0-0-5-3-0--5-3-0--5-3-0-0|

G:------------------------|
D:------------------------|
A:----4-5-7-7-5-0---------|
E:0-0-------------5-3-0-0-|

G:------------------------|
D:------------------------|
A:5-3-----5-3-----5-3-----|
E:----0-0-----0-0-----0-0-|

G:--------------|
D:----4-5--5----|  x8 
A:7-7--------5-0|  (slow on the 
E:--------------|    8th time)

(Outro)
G:--------------|
D:--------------|
A:5-------------|
E:---5~--------5|



/GUITAR TAB/

Intro:
|--------------------|-----------------------|---------0------------|
|--------------------|--------------3-----2--|------2--0------------|
|--------------1--1--|---------4-------4--2--|------2---------1--1--|
|--------------2--2--|------2----------------|----------------2--2--|
|--------------2--2--|-----------------------|----------------2--2--|
|--------------0--0--|-----------------------|----------------0--0--|


 3rd time:
|-----------------------|-------------------|----------3--------2--|
|--------------3-----2--|--------0----------|-----3----3--------3--|
|---------4-------4--2--|--------0----------|--1--2----0--------2--|
|------2-------------2--|--------0----------|--2--0----0--------0--|
|--------------------0--|-------------------|--2-------2--------0--|
|-----------------------|--------3----------|--0--2----3-----------|


|-------------------|----------3--3----3--2--|------------------|
|--------2----------|-----3----3--3----3--3--|------------------|
|--------2----------|--1--2----0--0----0--2--|------------------|
|--------2----------|--2--0----0--0----0--0--|------------------|
|--------0----------|--2-------2--2----2--0--|------------------|
|-------------------|--0--2----3--3----3-----|------------------|


 Verse guitar 1:
|-----------------------------|-----------10--------------|
|-9-10--9----9----------------|---------------------------|
|----9--9----9--11----11---9--|--------9--------9------9--|
|-9-11--9----9--12----12--11--|----11--------------11--9--|
|-----------------------------|---------------------------|
|-----------------------------|---------------------------|


 Verse guitar 2:
|-------------------------|------------------------|
|---5--5----5--3----3--2--|----------3----2--------|
|-4-6--4----4--2----2--2--|----------2----2--------|
|----------------------2--|-------2--4----2--------|
|-------------------------|----4-------------4-----|
|-------------------------|---------------------0--|

Тональность:

Это должно быть в ТОП-листе! - Топ-лист композиций



Назад
Рекомендуем посмотреть другие песни исполнителя «AC/DC»:

  • Комменты Fb ()
  • Комменты ВК



Добавить в Избранное Браузера
Сохранить здесь Очистить


x

0


+
-

+
-

-

Авторизация





Зарегистрироваться

M

Дата и время

  • 21:58:18
     

Социальные ссылки


Наши приложения

  • Muzbank App Play Market
  • Muzbank Amazon App