MUZBANK



A MOST COMPLETE BANK OF MUSIC INFORMATION

МУЗЫКАЛЬНО-ИНФОРМАЦИОННЫЙ БАНК





AAC/DC • Foundations (аккорды и текст - chords & lyrics)


334

Print

Видео «Foundations (AC/DC)»

Видео клипы к песне подбираются автоматически сайтом youtube. Возможны некоторые несоответствия клипов песне.

↑ Спрятать рекламу ↑





e|-----------|----------------------------------------------------
B|--8-----8--|----10-------10-------8-----10-------10-------8~~~~-
G|--7-----7--|----7--------7--------7-----7--------7--------7~~~~-
D|-----0-----|-0-----0--0-----0--0-----0-----0--0-----0--0--------
A|-----------|----------------------------------------------------
E|-----------|----------------------------------------------------

-----------3----------------------------------------------------|
-----5-----0-----------6--------5-----8--8-----8----------------|
-----5-----0-----------7--------5-----7--7-----7----------------|
--0-----0-----------0--------0-----0--------0-------------------|
----------------------------------------------------------------|
----------------------------------------------------------------|



See me leaning, on the bar
I got my head in a whiskey jar
Feeling good cause the city's alive
I'm getting ready to rock and jive
I get up and I slide across the floor
You wanna come an' I'll meet you at the door
No one can stop us cause we're feeling too right
We're gonna steal our way around tonight

Alright, alright
Aye, aye, oh, shake your foundations
Aye, aye, oh, shake it to the floor
Aye, aye, oh, shake your foundations
Aye, aye, oh, shake it

I was taking, no liberties
She's getting hotter off the heat on me
I was oiling, she was slick
Licking off the sweat, her favourite trick
Help me, help me please, tame this animal, and help me to breathe
I said no, no way, you gotta come with me, all the way
OK I'll play

Aye, aye, oh, shake your foundations
Aye, aye, oh, shake it to the floor
Aye, aye, oh, shake your foundations
Aye, aye, oh, shake it to the floor

Aye, aye, oh, shake your foundations
Aye, aye, oh, shake it to the floor
Aye, aye, oh, shake your foundations
Aye, aye, oh, shake it

We had the night, we had the time
She had the sugar and I had the wine
Took my hand shook me to the core
I told her not to touch but she was coming back for more
You know what for

Aye, aye, oh, shake your foundations
Aye, aye, oh, shake it to the floor
Aye, aye, oh, shake your foundations
Aye, aye, oh, shake it to the floor
Make a sign




verse:

|----------------------------------------------------------|
|-8-x-8-x-10-x-x-8-x-10-x-x-10-x-x-6~-0-5-8-0-6~-0-5-8-x-x-|
|-7-x-7-x-7--x-x-7-x-7--x-x-7--x-x-7~-0-5-7-0-7~-0-5-7-x-x-| repeat this 
|----------------------------------------------------------| until verse is
|----------------------------------------------------------| over.
|----------------------------------------------------------| 

chorus:

|---------------------------------------|
|-3-3-3-3--6~-0-5-8-8-3-3-3-3--6~-0-5-8-|
|-2-2-0-0--7~-0-5-7-7-2-2-0-0--7~-0-5-7-|
|-0-0-0-0-----------------0-0-----------|
|-------x-------------------x-----------| x2
|-------3-------------------3-----------|

guitar solo:

|-----------------------------------------|
|-10---8----7---10---8----7---------------|
|-12b--10b--9b--12b--10b--9b--3~-5~-3~-5~-|
|-----------------------------------------|
|-----------------------------------------|
|-----------------------------------------|

|-----------------------------------------------------|
|-10---8----7---17---15---14---15--15--15--15--13-20~-|
|-12b--10b--9b--20b--18b--17b--15b-15--15b-15--13-20~-|
|-----------------------------------------------------|
|-----------------------------------------------------|
|-----------------------------------------------------|

Тональность:

Это должно быть в ТОП-листе! - Топ-лист композиций



Назад
Рекомендуем посмотреть другие песни исполнителя «AC/DC»:

  • Комменты Fb ()
  • Комменты ВК



Добавить в Избранное Браузера
Сохранить здесь Очистить


x

0


+
-

+
-

-

Авторизация





Зарегистрироваться

M

Дата и время

  • 09:17:39
     

Социальные ссылки


Наши приложения

  • Muzbank App Play Market
  • Muzbank Amazon App
  • Muzbank Bitcoin13igjuWJj2R4cHiyZqP7Q3ggVvfXE9j82Q