MUZBANK


МУЗЫКАЛЬНО-ИНФОРМАЦИОННЫЙ БАНК





AAC/DC • Night Prowler (аккорды и текст - chords & lyrics)


558

Print

Видео «Night Prowler (AC/DC)»

Видео клипы к песне подбираются автоматически сайтом youtube. Возможны некоторые несоответствия клипов песне.

↑ Спрятать рекламу ↑






First: Tune down a half step!

  (Malcolm) Intro
   A5      D5       Csus2  D5  A5  D5  Csus2  D5
e|---------------------------|------------------|--------------|
b|---------3--------3------3-|-----3---3------3-|--------------|
g|-2-------2--------0------2-|-2---2---0------2-|--------------|
D|-2-------0---------------0-|-2---0----------0-|--------------|
A|-0----------------3--------|-0-------3--------|--------0--3--|
E|---------------------------|------------------|--0--3--------|

  ..Pattern1.........................endpattern.
 /  A5      D5      Csus2      D5
e|--------------------------------|--------------|
b|----------3-------------3----3--|--------------|
g|--2-------2---------0-0------2--|--------------|
D|--2-------0------------------0--|--------------|
A|--0---------------3-------------|--------0--3--|
E|--------------------------------|--0--3--------|

  ..Pattern2.........................endpattern.
 /  A5      D5      Csus2      Dsus2
e|-----------------------------0-----------------|
b|----------3-------3-3-3-3-3--3-----------------|
g|--2-------2-------0-0-0-0-0--2-----------------|
D|--2-------0------------------0-----------------|
A|--0---------------3-3-3-3-3--------------------|
E|-----------------------------------------------|

 (Angus w/pattern 1)
e|-------------------------------------------------------------|
b|-8-10------------------10-10--8-5---8---10----------10--8----|
g|-----------------------------------------------------------7-|
D|-------------------------------------------------------------|
A|-------------------------------------------------------------|
E|-------------------------------------------------------------|

e|-------------------------------------------------------------|
b|-------------------------------------------------------------|
g|-7-----8----9--12-14--------9---7-----5-----12-14----8--7--5-|
D|-------------------------------------------------------------|
A|-------------------------------------------------------------|
E|-------------------------------------------------------------|
  (Angus w/pattern 2)
e|-------------------------------------------8-10--------------|
b|----------------------------------------5--------8-10---8--5-|
g|12-14----8---7------5---12-14----8---7--5--------------------|
D|-------------------------------------------------------------|
A|-------------------------------------------------------------|
E|-------------------------------------------------------------|
 Pattern 3 (Verse)
   A5      D         G           D
e|----------------------------------|
b|-------------------0--------------| X 2
g|-------------------0-----------2--|
D|-2-------4---------0-----------4--|
A|-0-------5---------------------5--|
E|----------------------------------|
( rat runs down the alley...)  Pattern 4 (played 4 times)
   A5           D          G          D
e|-------------------------------------------------------|
b|-------------------------------------------------------|
g|-------------------------0-----------------------------|
D|-2------2-----4----------0----------4------------------|
A|-0------0-----5---------------------5-------------0--3-|
E|--------------------------------------------0--3-------|

Play Chorus w/Pattern 1 (3 1/2 X)
(...you shut out the light...)

e|--------------------------------------|  Pattern 5
b|-3--3--3--3--3--3--3--3--3--3--3--3---|
g|-0--0--0--0--0--0--2--2--2--2--2--2---|
D|-------------------0--0--0--0--0--0---|
A|-3--3--3--3--3--3---------------------|
E|--------------------------------------|
  Solo w/fig.1 (Chorus-like)
e|-----------------------------------------------------------|
b|---------------------------------------8-9---8-10----9--10-|
g|-7--9--9-7-8-9-8-9--7--5-----------------------------------|
D|----------------------------7--------x---------------------|
A|-----------------------------------------------------------|
E|-----------------------------------------------------------|

e|-----------------------------------------------------------|
b|-/7---------------------------------------------------10---|
g|----5-6-7-5-6-7-5-6-7--5--6-7--5--6-7--9---7---9---------9-|
D|---------------------------------------------------2-/-----|
A|-----------------------------------------------------------|
E|-----------------------------------------------------------|

e|0----------------------------------------------------------|
b|---7-8--8-10----10--10--------10------13-15------15-----15-|
g|-----------------------------------------------------------|
D|-----------------------------------------------------------|
A|-----------------------------------------------------------|
E|-----------------------------------------------------------|
Pattern 6 (for Verse 2) 4 x
   A5          A6          A7(no 3rd)       A6
e|-------------------------------------------------------------|
b|-------------------------------------------------------------|
g|-------------------------------------------------------------|
D|-2--2--2--2--4--4--4--4--5-----5--5-----5--4-----------------|
A|-0--0--0--0--0--0--0--0--0-----0--0-----0--0----------0----3-|
E|------------------------------------------------0--3---------|
Solo: w/patt.1

e|-------------------------------------------------5-----------|
b|----------------------------------------------------5--8--10-|
g|--7--9---------9--8--9-8--9--8-9-8-9-8-9--8--9---------------|
D|-------------------------------------------------------------|
A|-------------------------------------------------------------|
E|-------------------------------------------------------------|

e|--8-10--------8-5--3-5-0-3-----------------------------------|
b|--------------------------3-5--------------------------------|
g|-------------------------------5-------7-9-9-7-9-7-9-7-9-7-9-|
D|-------------------------------------------------------------|
A|-------------------------------------------------------------|
E|-------------------------------------------------------------|

e|-------------------------------------------------------------|
b|--------------------------------------------------------8-10-|
g|-9-9-9-9-----9-9-9-9--9-9-9-9--9-9-9---9-9-9-9----x--x-------|
D|-------------------------------------------------------------|
A|-------------------------------------------------------------|
E|-------------------------------------------------------------|

e|-5-3-0--8-5-0-5-3-0-----------------------------------------|
b|--------------------5-3-0-----------------------------------|
g|--------------------------5-2-0-----------------------------|
D|--------------------------------5-2-0-2-5---5-5-7-7-7-7-7-7-|
A|------------------------------------------------------------|
E|------------------------------------------3-----------------|

e|--------0----0----0---------------|
b|--------3----3----3---------------|
g|-x-----0----0----2----------------|
D|-----------------0----------------|
A|-------3----3----------------0--3-|
E|-----------------------0---3------|

e|-------------------------------------------------------------|
b|1--3----2-0-3--0-2--0-3-1-3-1-3-1-3-1---3-1-3-1-3-1----------|
g|-----------------------------------------------------5-7-9-x-|
D|-------------------------------------------------------------|
A|-------------------------------------------------------------|
E|-------------------------------------------------------------|

e|---------------5-----------------------5---------5-----5-----|
b|-------------5---5-8-10------x--8-10----8-5-8-10---8-5---/-8-|
g|7-9----------------------------------------------------------|
D|-------------------------------------------------------------|
A|-------------------------------------------------------------|
E|-------------------------------------------------------------|

e|-8-5-----5---------------------------------------------------|
b|-----8------5---8--5---------------------------------x--8-10-|
g|----------------------5--8--7--5--7--------------------------|
D|-------------------------------------7--5--7--5--19----------|
A|-------------------------------------------------------------|
E|-------------------------------------------------------------|

e|-----------------------------------------------7-8-7-8-7-8---|
b|8-10--10-----10--10--10--10--10--10--10--10----------------x-|
g|-------------------------------------------------------------|
D|-------------------------------------------------------------|
A|-------------------------------------------------------------|
E|---------------------------------------------0---------------|

Lyrics:
Night Prowler

Somewhere a clock strikes midnight
And thereґs a full moon in the sky
You hear a dog bark in the distance
You hear someoneґs baby cry

A rat runs down the alley
And a chill runs down your spine
Someone walks across your grave
And you wish the sun would shine
No oneґs gonna warn you
And no oneґs gonna yell ґAttackґ
And you donґt feel the steel
Till itґs hanging out your back

CHORUS:
Iґm your Night Prowler, asleep in the day
Iґm your Night Prowler, get out of my way
Look out for the Night Prowler, watch you tonight
Iґm the Night Prowler, when you turn out the light ...

Too scared to turn your light out
ґCos thereґs something on your mind
Was that a noise outside your window?
Whatґs that shadow on the blind?
As you lie there naked
Like a body in a tomb
Suspended animation
As I slip into your room

CHORUS

Solo

CHORUS

Iґm your Night Prowler, break down your door
Iґm your Night Prowler, crawling ґcross your floor
Iґm your Night Prowler, make a mess of you, yes I will
Night Prowler, and I am telling this to you
There ainґt nothing you can do
(Shazbot Nunu Nunu)

Тональность:

Это должно быть в ТОП-листе! - Топ-лист композиций



Назад
Рекомендуем посмотреть другие песни исполнителя «AC/DC»:

  • Комменты Fb ()
  • Комменты ВК



Добавить в Избранное Браузера
Сохранить здесь Очистить


x

0


+
-

+
-

-

Авторизация





Зарегистрироваться

M

Дата и время

  • 18:40:58
     

Социальные ссылки


Наши приложения

  • Muzbank App Play Market
  • Muzbank Amazon App