MUZBANK


МУЗЫКАЛЬНО-ИНФОРМАЦИОННЫЙ БАНК





AAC/DC • Rock And Roll Aint Noise Pollution (аккорды и текст - chords & lyrics)


466

Print

Видео «Rock And Roll Aint Noise Pollution (AC/DC)»

Видео клипы к песне подбираются автоматически сайтом youtube. Возможны некоторые несоответствия клипов песне.

↑ Спрятать рекламу ↑





E|-------------||------------------|------------------|------------------------|
B|--0---2---3--||---2---2---3------|-------0---2---3--|---2---2---3------------|
G|--1---2---4--||.--2---2---4------|-------1---2---4--|---2---2---4------9⁄⁄-.-|
D|-------------||.-----------------|---2--------------|------------------9⁄⁄-.-|
A|-------------||---0---0---0------|---2--------------|---0---0---0------7⁄⁄---|
E|-------------||---------------3--|---0--------------|---------------3--0-----|

E|--------------|-------------------|-------------------|-----------------|
B|--0---2---3---|----2---2---3------|--------0---2---3--|---2---2---------|
G|--1---2---4---|----2---2---4------|--------1---2---4--|---2---2-------1-|
D|--------------|-------------------|---2---------------|---------------2-|
A|--------------|----0---0---0------|---2---------------|---0---0-------2-|
E|--------------|----------------3--|---0---------------|-----------3---0-|

E|--------------|------------------|------------------|----------------------|
B|--0---2---3---|---2---2---3------|-------0---2---3--|---2---2---3----------|
G|--1---2---4---|---2---2---4------|-------1---2---4--|---2---2---4------9⁄⁄-|
D|--------------|------------------|---2--------------|------------------9⁄⁄-|
A|--------------|---0---0---0------|---2--------------|---0---0---0------7⁄⁄-|
E|--------------|---------------3--|---0--------------|---------------3--0---|

E|--------------|------------------|------------------|--------------------|
B|--0---2---3---|---2---2---3------|-------0---2---3--|---2---2---3--------|
G|--1---2---4---|---2---2---4------|-------1---2---4--|---2---2---4------9-|
D|--------------|------------------|---2--------------|------------------9-|
A|--------------|---0---0---0------|---2--------------|---0---0---0------7-|
E|--------------|---------------3--|---0--------------|---------------3--0-|

Heavy decibels are playin on my guitar. We got vibrations comin up from the
E|-----|---------------------|-----------------------|-------------------|
B|-----|---------------------|-----------------------|-------------------|
G|-----|-------------------2-|--------------------9--|-----------------2-|
D|--2--|-------------------2-|--2---4---2----9----9--|-----------------2-|
A|--2--|---2---4---5-------0-|--0---0---0----9⁄11----|-2---4---2-------0-|
E|--0--|---0---0---0---3-----|-----------------------|-0---0---0---3-----|

Well just listenin 2 the rock that's givin 2 much noise. Are U
E|---------------------|----------------------|----------------------------|
B|---------------------|----------------------|----------------------------|
G|--------------4------|-------------------2--|--------------------4---4---|
D|--2---4---2-------6--|-------------------2--|-----4---2------------6---6-|
A|--0---0---0----------|--2---4----5-------0--|-----0---0------------------|
E|---------------------|--0---0----0---3------|----------------------------|

deaf, U wanna hear some more. We're just
E|----------------------------|------------------------------|
B|----------------------------|------------------------------|
G|-------------------------2--|---2---------2----2-----------|
D|-------------------------2--|---2----4----2----2----4------|
A|--2-----4-----2----------0--|---0----0----0----0----0------|
E|--0-----0-----0-----3-------|----------------------------0-|

talkin' about the future, forget about the past. It'll
E|---------------------------------------|------------------------------------|
B|----------------------3----------------|----4-------------------------------|
G|--------9-------------2----------------|----4--------------9----------------|
D|--------9-------------0----------------|----4--------------9----------------|
A|--------7-------------0-------------2--|----2--------------7--------------7-|
E|--------0------------------------------|-------------------0--------------0-|

Always be with us. It's never gonna die
E|-------------------------------------|---------------------------------|
B|---------------------3------------4--|---4---4---4---4---4---4---4---4-|
G|----9----------------2------------4--|---4---4---4---4---4---4---4---4-|
D|----9----------------0------------4--|---4---4---4---4---4---4---4---4-|
A|----7----------------0------------2--|---2---2---2---2---2---2---2---2-|
E|----0--------------------------------|---------------------------------|

Never gonna die. Rock'N' Roll ain't Noise Pollution.
E|----------------------------------------|--------------------------------|
B|----4-------4-------4------1----2----3--|----2------2------3-------------|
G|----4-------4-------4------0----2----4--|----2------2------4-----------9-|
D|----4-------4-------4-------------------|----2------2------------------9-|
A|----2-------2-------2-------------------|----0------0------0-----------7-|
E|----------------------------------------|-------------------------3----0-|

Rock'n' Roll Ain't gonna die Rock'n' Roll Ain't noise pollution
E|--------------|-------------------|-------------------|--------------------|
B|--0---2---3---|----2---2---3------|--------0---2---3--|---2---2---3--------|
G|--1---2---4---|----2---2---4------|--------1---2---4--|---2---2---4------1-|
D|--------------|----2---2----------|---2---------------|---2---2----------2-|
A|--------------|----0---0---0------|---2---------------|---0---0----------2-|
E|--------------|----------------3--|---0---------------|--------------3---0-|

Rock'n' Roll It will survive. Yes it will
E|--------------|--------------------|-------------------|
B|--0---2---3---|----2---2-----------|-------------------|
G|--1---2---4---|----2---2-------9^^-|-^^^^^^^^^^^-----.-|
D|--------------|----2---2-------9^^-|-^^^^^^^^^^^-----.-|
A|--------------|----0---0-------7^^-|-^^^^^^^^^^^-------|
E|--------------|------------3---0---|-------------------|

I took a look inside your bedroom door. You look so good lyin'on your bed
E|-----|---------------------|-----------------------|-------------------|
B|-----|---------------------|-----------------------|-------------------|
G|-----|-------------------2-|--------------------9--|-----------------2-|
D|--2--|-------------------2-|--2---4---2----9----9--|-----------------2-|
A|--2--|---2---4---5-------0-|--0---0---0----9⁄11----|-2---4---2-------0-|
E|--0--|---0---0---0---3-----|-----------------------|-0---0---0---3-----|

Well I asked U if U wanted any rhythm and love. You said you
E|---------------------|----------------------|----------------------------|
B|---------------------|----------------------|----------------------------|
G|--------------4------|-------------------2--|--------------------4---4---|
D|--2---4---2-------6--|-------------------2--|-----4---2------------6---6-|
A|--0---0---0----------|--2---4----5-------0--|-----0---0------------------|
E|---------------------|--0---0----0---3------|----------------------------|

wanna Rock 'n' Roll Instead. We're just
E|----------------------------|------------------------------|
B|----------------------------|------------------------------|
G|-------------------------2--|---2---------2----2-----------|
D|-------------------------2--|---2----4----2----2----4------|
A|--2-----4-----2----------0--|---0----0----0----0----0------|
E|--0-----0-----0-----3-------|----------------------------0-|

talkin' about the future, forget about the past. It'll
E|---------------------------------------|------------------------------------|
B|----------------------3----------------|----4-------------------------------|
G|--------9-------------2----------------|----4--------------9----------------|
D|--------9-------------0----------------|----4--------------9----------------|
A|--------7-------------0-------------2--|----2--------------7--------------7-|
E|--------0------------------------------|-------------------0--------------0-|

Always be with us. It's never gonna die
E|-------------------------------------|---------------------------------|
B|---------------------3------------4--|---4---4---4---4---4---4---4---4-|
G|----9----------------2------------4--|---4---4---4---4---4---4---4---4-|
D|----9----------------0------------4--|---4---4---4---4---4---4---4---4-|
A|----7----------------0------------2--|---2---2---2---2---2---2---2---2-|
E|----0--------------------------------|---------------------------------|

Never gonna die. Rock'N' Roll ain't Noise Pollution.
E|----------------------------------------|--------------------------------|
B|----4-------4-------4------1----2----3--|----2------2------3-------------|
G|----4-------4-------4------0----2----4--|----2------2------4-----------9-|
D|----4-------4-------4-------------------|----2------2------------------9-|
A|----2-------2-------2-------------------|----0------0------0-----------7-|
E|----------------------------------------|-------------------------3----0-|

Rock'n' Roll Ain't gonna die Rock'n' Roll Ain't noise pollution
E|--------------|-------------------|-------------------|--------------------|
B|--0---2---3---|----2---2---3------|--------0---2---3--|---2---2---3--------|
G|--1---2---4---|----2---2---4------|--------1---2---4--|---2---2---4------1-|
D|--------------|----2---2----------|---2---------------|---2---2----------2-|
A|--------------|----0---0---0------|---2---------------|---0---0----------2-|
E|--------------|----------------3--|---0---------------|--------------3---0-|

Rock'n' Roll It will survive. Yes it will
E|--------------|--------------------|-------------------|
B|--0---2---3---|----2---2-----------|-------------------|
G|--1---2---4---|----2---2-------9^^-|-^^^^^^^^^^^-----.-|
D|--------------|----2---2-------9^^-|-^^^^^^^^^^^-----.-|
A|--------------|----0---0-------7^^-|-^^^^^^^^^^^-------|
E|--------------|------------3---0---|-------------------|

(Solo)
E|----------------------------------------------------------------------|
B|--------------2--2^^----2--2^^--------5------⁄8--8--8-----------9--9⁄-|
G|--2(4)2--⁄4---3--3^^----2--2^^----⁄6-----6---⁄9--9--9---9-9--9-----9⁄-|
D|-------------------------------------------------------------------9⁄-|
A|----------------------------------------------------------------------|
E|----------------------------------------------------------------------|

E|----------------------------------------------------------12--12--15-⁄⁄-|
B|----------9--9------------15------------------15----------12--12--14-⁄⁄-|
G|----------9--9----14(16)------(16)14--12--14------14--12----------------|
D|---11__9--9--9----------------------------------------------------------|
A|------------------------------------------------------------------------|
E|------------------------------------------------------------------------|

E|------|
B|---15-|
G|---14-|
D|------|
A|------|
E|------|

Тональность:

Это должно быть в ТОП-листе! - Топ-лист композиций



Назад
Рекомендуем посмотреть другие песни исполнителя «AC/DC»:

  • Комменты Fb ()
  • Комменты ВК



Добавить в Избранное Браузера
Сохранить здесь Очистить


x

0


+
-

+
-

-

Авторизация





Зарегистрироваться

M

Дата и время

  • 22:45:20
     

Социальные ссылки


Наши приложения

  • Muzbank App Play Market
  • Muzbank Amazon App