MUZBANK


МУЗЫКАЛЬНО-ИНФОРМАЦИОННЫЙ БАНК





AAC/DC • Snowballed (аккорды и текст - chords & lyrics)


443

Print

Видео «Snowballed (Ac Dc)»

Видео клипы к песне подбираются автоматически сайтом youtube. Возможны некоторые несоответствия клипов песне.

↑ Спрятать рекламу ↑





Crashed out of the market
Out on the floor
Washed up on the shore
Bombed outta the city
Out of the door
Blown up against the wall
Put out of the picture
Axe about to fall
Walk before you crawl
Dragged down to the bottom
Screamin' for air
The shark must get his share
You can see it comin'
Miles and miles away
Women drink and money
Are gonna make you pay
Snowballed, ooh yeah
Snowballed, they done it again
Snowballed, makin' me blind
Snowballed

The howl of the wolf
Snow in his eyes
Waitin' to take you by surprise
Eye of the needle
Heat of the fight
Watch those teeth cause they're ready to bite
You can see it comin'
Miles and miles away
Women drink and money
Are gonna make you pay
You've been
Snowballed, yes you have
Snowballed, you've been fooled again
Snowballed, that's all
Snowballed

Snowballed, snowballed, snowballed, snowballed
Snowballed, snowballed, snowballed, snowballed
You been snowballed
You been snow, you been snow, you been snow
Snowballed, balled balled balled




Snowballed by AC/DC
Standard Tuning


/GUITAR/


     ^    v  PM PM   PM PM    ^    v  PM PM   PM PM    ^    v  PM PM   PM PM   
E||------------------------|------------------------|------------------------|
B||------------------------|------------------------|------------------------|
G||--7---------------------|------------------------|------------------------|
D||--7----7----------------|--7----7----------------|--7----7----------------|
A||--5----4----------------|--5----4----------------|--5----4----------------|
E||----------0--0----0--0--|----------0--0----0--0--|----------0--0----0--0--|


---------------------------||-------------------------|------------------------|
---------------------------||-------------------------|------------------------|
--(2)----------------------||*------------------------|------------------------|
---------------------0-----||*--7----7----------------|--7----7----------------|
---0~-------0--1--2--------||---5----4----------------|--5----4----------------|
---------3--------------0--||-----------0--0----0--0--|----------0--0----0--0--|




------------------------|------------------------|------------------------|
------------------------|------------------------|------------------------|
------------------------|------------------------|------------------------|
--7----7----------------|--7----7----------------|--7----7----------------|
--5----4----------------|--5----4----------------|--5----4----------------|
----------0--0----0--0--|----------0--0----0--0--|----------0--0----0--0--|


  
--------------------------|------------------------|------------------------|
--------------------3-----|------------------------|------------------------|
--------------------2-----|------------------------|------------------------|
--------------------0-----|--7----7----------------|--7----7----------------|
--0~-------0--1--2--------|--5----4----------------|--5----4----------------|
--------3--------------0--|----------0--0----0--0--|----------0--0----0--0--|


 
------------------------|--------------------------|------------------------|
------------------------|-----------------3--L--3--|--L---------------------|
------------------------|-----------------0--L--2--|--L--2-------2----L-----|
--7----7----------------|-----------------0--L--0--|--L--2-------2----L-----|
--5----4----------------|--7--L--L--7--7--x--------|-----0-------0----L-----|
----------0--0----0--0--|--0--L--L--0--0--3--L-----|----------3----------3--|

 
Pre-chorus:
----------------------|------------------------|----------------------|
--3--------L--3----3--|--L---------------------|--3--------L--3----3--|
--2--------L--0----2--|--L--2-------2----L-----|--2--------L--0----2--|
--0--------L--0----0--|--L--2-------2----L-----|--0--------L--0----0--|
--------------x-------|-----0-------0----L-----|--------------x-------|
--------------3-------|----------3----------3--|--------------3-------|



------------------------|----------------------|------------------------|
--L---------------------|--3--------L--3----3--|--L---------------------|
--L---------------------|--2--------L--0----2--|--L--2-------2-------2--|
--L--2-------2----L-----|--0--------L--0----0--|--L--2-------2-------2--|
-----0-------0----L-----|--------------x-------|-----0-------0-------0--|
----------3----------3--|--------------3-------|----------3-------3-----|

Chorus   
-------------------|--------------------------|--------------------------|
-------------------|--------------------------|--------------------------|
--L----------------|--L-----2-----------------|--------------------------|
--L----------------|--L--2--2-----------------|--------------------------|
--L----------------|--L--2--0-----------------|--------------------------|
-------------------|-----0--------------------|--------------------------|

-------|-------|-------|---------------------------|-----0---------------------|
-------|-------|-------|---------------------------|--3------------------------|
-------|-------|-------|--------------------2s--4--|--------4s--2--0--2--0-----|
-------|-------|-------|---------------------------|------------------------2--|
-------|-------|-------|---------------------------|---------------------------|
-------|-------|-------|---------------------------|---------------------------|


---------------------------|-----0---------------------|
---------------------------|--3------------------------|
--------------------2s--4--|--------4s--2--0--2--L--L--|
--0------------------------|---------------------------|
---------------------------|---------------------------|
---------------------------|---------------------------|

  
---------------------------|-----0---------------------|
---------------------------|--3------------------------|
--L-----------------2s--4--|--------4s--2--0--2--0-----|
---------------------------|------------------------2--|
---------------------------|---------------------------|
---------------------------|---------------------------|



Solo:


  E  E  E  E  E  E  E  E     E  E  E   E  E  E  E  E   
--------------------------|---------------------------|
--------------------------|---------------------------|
--------------------------|--------7b--------------L--|
--0-----------------------|---------------------------|
--------------------------|---------------------------|
--------------------------|---------------------------|


           TP                                                               
  Q        H         Q       W                   E  E  E  E  E  E   Q       
-------<>(12)-------------|-------------------|----------------------------|
-----------x--------------|-------------------|--------------------14br----|
--L-------(9)--------L----|--L----------------|--L--L--L--L--L--L--14br----|
-----------x--------------|-------------------|----------------------------|
-----------x--------------|-------------------|----------------------------|
-----------x--------------|-------------------|----------------------------|


  Q    Q    Q    Q        Q      E    E    H         
----------------------|-----------------------------|
--L----L----L----L----|--15b----15b--15b~--L--------|
--L----L----L----L----|-----------------------------|
----------------------|-----------------------------|
----------------------|-----------------------------|
----------------------|-----------------------------|


   Q      E    Q.       S  S  S  S  
-----------------------12-15-12----|
--15b----15b--15b---------------15-|
-----------------------------------|
-----------------------------------|
-----------------------------------|
-----------------------------------|


   S  S  S  S  S  S  S  S  S  S  S  S  E   E     
--12--------------------------------------------|
-----12-15-12-15-12-15-12-----------------------|
--------------------------15-14-12----14--12br--|
-----------------------------------14-----------|
------------------------------------------------|
------------------------------------------------|


  S S  S  S  S  S  E   Q     E   E      E   S  S  S  S  Q.       S  E    S  
-------------------------------------|-------------------------------------|
--------------------------------12b--|--L-----------------------12------12-|
--L-L---------------------------12---|--L--------------15b---------15b-----|
------14-12-14-12-----12\------------|-----14-12-14-12---------------------|
------------------13-----------------|-------------------------------------|
-------------------------------------|-------------------------------------|


   E    S  E    S  E    E.    S  S  S  S  S  
-----------------------------12-------------|
-------12------12---------------15-12----12-|
--15b-----15b-----15b--15b------------15----|
--------------------------------------------|
--------------------------------------------|
--------------------------------------------|


   |---3---|   |---3---|                          
   E   E   E   E   E   E   S  S  S  S  S  S  E    
-------------------------------------------------|
--15--14--12--14--12--14-------------------------|
--------------------------14-12-14-12-14----12b--|
-----------------------------------------14------|
-------------------------------------------------|
-------------------------------------------------|


                              TP          TP    TP    TP    
  E.   S    S S S S  Q.       E     Q     Q     Q     Q     
-----------------------------12--|--L----15----12----15----|
-----------------------------13--|--L----16----13----16----|
--L------------------------------|-------------------------|
---------------------------------|-------------------------|
--------------------12b----------|-------------------------|
------15brb-L-L-L-L--------------|-------------------------|


   TP    TP    TP    TP                                           
   Q     Q     Q     E   E      Q     S  S  E   S  E.    S  E.    
--12----15----12----15-------|-----------------------------------|
--13----16----13----16--15b--|--L----12-15b-L--12-15b---12-15b---|
-----------------------------|-----------------------------------|
-----------------------------|-----------------------------------|
-----------------------------|-----------------------------------|
-----------------------------|-----------------------------------|


                              |--3--|  
  E   Q       E     Q.        S  S  S  
-----------------------------15-12-10-|
--L--17pb----17pb--17pb---------------|
--------------------------------------|
--------------------------------------|
--------------------------------------|
--------------------------------------|


         |--3--|        |--3--|        |--3--|              
   S  S  S  S  S  S  S  S  S  S  S  S  S  S  S  S  S  S  S  
--15-12-15-12-10-15-12-15-12-10-15-12-15-12-10-12-10-------|
-----------------------------------------------------12-15-|
-----------------------------------------------------------|
-----------------------------------------------------------|
-----------------------------------------------------------|
-----------------------------------------------------------|


   S  S  S  S  S  S  S  S  S  S  S  S  S  S  E    
-------------------------------------------------|
--12-11-12-11------------------------------------|
--------------14-12-14-12-14----------------15b--|
--------------------------12-14-12-14-12---------|
-----------------------------------------14------|
-------------------------------------------------|


  Q     S  S  S  S  S  S  S  S  S  S  S  S     Q.      H          E    
-------12-----------------------------------|-------------------------|
----------15-12----12-----------------------|-------------------------|
--L-------------15----15-14-12-14-12-14-12~-|--L------15b--------12b--|
--------------------------------------------|-------------------------|
--------------------------------------------|-------------------------|
--------------------------------------------|-------------------------|


  E   H         E   Q        E   E   E    H         E   
--------------------------|----------------------------|
--------------------------|-----15-------12\--------L--|
--L----------------14b----|--L------14b----------------|
-----14~--------L---------|----------------------------|
--------------------------|----------------------------|
--------------------------|----------------------------|


               |------3-----|                                     
  E   Q.       Q      Q     Q        E    E   E   E   H           
---------------------------------|-------------------------------|
--L------------------------------|-------------------------------|
-----15b------14b----12----14----|-------------------------------|
---------------------------------|--14s--12----------------------|
---------------------------------|-----------14------------------|
---------------------------------|---------------15--15br--------|


  E    Q.       S  S  Q.          E   Q      E   H          
------------------------------|----------------------------|
---------------------12-------|------12--------------------|
------12b------12----12b------|------12b-------------------|
------------------14----------|--14---------14--14~--------|
------------------------------|----------------------------|
--L~--------------------------|----------------------------|


              |-------3-------|                                            
   H          Q       Q       Q          H          H                      
-------------------------------------|------------------------|-----------|
--15b--------15pb----15pb----15pb----|--15pb--------L\--------|-----------|
-------------------------------------|------------------------|-----------|
-------------------------------------|------------------------|-----------|
-------------------------------------|------------------------|-----------|
-------------------------------------|------------------------|-----------|


-----------|-----------|-----------|-----------|-----------|-----------|
-----------|-----------|-----------|-----------|-----------|-----------|
-----------|-----------|-----------|-----------|-----------|-----------|
-----------|-----------|-----------|-----------|-----------|-----------|
-----------|-----------|-----------|-----------|-----------|-----------|
-----------|-----------|-----------|-----------|-----------|-----------|



                          H         H             H.             E    E    
-----------|-----------|----------------------|---------------------------|
-----------|-----------|-----------10---------|--10-------------13b--13b--|
-----------|-----------|-----------12b--------|--12b----------------------|
-----------|-----------|----------------------|---------------------------|
-----------|-----------|----------------------|---------------------------|
-----------|-----------|----------------------|---------------------------|


  H          H             Q      Q     Q     E   E     
-----------------------|-------------------------------|
--L~--------15b--------|--15b----13--------------13br--|
-----------------------|---------------14----14--------|
-----------------------|-------------------------------|
-----------------------|-------------------------------|
-----------------------|-------------------------------|


  E   E  E   E   H             Q.       Q.      E   E     
-----12--------------------|-----------------------------|
--L------L------15b--------|--15b------------------13br--|
------------14-------------|-----------14~------L--------|
---------------------------|-----------------------------|
---------------------------|-----------------------------|
---------------------------|-----------------------------|


  E   E  E   H          E      Q     E   H         E    
-----12---------------------|-------12-----------------|
--L------L-------------13b--|--L------------------15b--|
------------14~-------------|-----------14-------------|
----------------------------|--------------------------|
----------------------------|--------------------------|
----------------------------|--------------------------|


                               TP      TP               
  E   E   E   E   H            Q.      Q.     E   E     
-----15--12--15--12--------|--12------15------L--------|
--L------------------------|---------------------15br--|
---------------------------|---------------------------|
---------------------------|---------------------------|
---------------------------|---------------------------|
---------------------------|---------------------------|


  |---3--|                                                     
  E  E   E   E   E    H            Q      E   Q.      E   E    
-------------------------------|------------------------------|
--L--L------15--13b------------|--13b----------------13--15b--|
--------14-----------14--------|---------14--14---------------|
-------------------------------|------------------------------|
-------------------------------|------------------------------|
-------------------------------|------------------------------|


      |--3--|                                                                 
  E   S  S  S  E   E  H                                                       
--------------------------------|
--L--15-13----15--15--L\--------|
-----------14-------------------|
--------------------------------|
--------------------------------|
--------------------------------|





/BASS/
No bass until (0.11)

(Intro)
G:--------------|
D:--------------|
A:-------2-3-4-5|
E:7-5-7---------|

G:------------------------------------------------|
D:------------------------------------------------|  x3
A:--5-4--------5-4--------5-4--------------2-3-4-5|
E:0-----0-0--0-----0-0--0-----0-0--0-7-5-7--------|

G:--------------------------------------------|
D:---------------------------------2-------5-3|
A:--5-4--------5-4--------5-4--------3-3-3----|
E:0-----0-0--0-----0-0--0-----0-0-------------|

G:---------------|    |-------------|
D:------------5--| x3 |-------------|
A:--------3-5---5|    |-------------|
E:5-3-5-5--------|    |5--3--5--3--5|

G:----------------------|
D:----------7-----------|
A:----------------------|
E:0-5---0-5---0-5---0-5~|

G:------------------------------------------------|
D:------------------------------------------------|  
A:--5-4--------5-4--------5-4--------------2-3-4-5|
E:0-----0-0--0-----0-0--0-----0-0--0-7-5-7--------|

G:--------------------------------------------|
D:---------------------------------2-------5-3|
A:--5-4--------5-4--------5-4--------3-3-3----|
E:0-----0-0--0-----0-0--0-----0-0-------------|

G:---------------|    |-------------|
D:------------5--| x4 |-------------|
A:--------3-5---5|    |-------------|
E:5-3-5-5--------|    |5--3--5--3--5|

G:----------------------|
D:----------7-----------|
A:----------------------|
E:0-5---0-5---0-5---0-5~|

(During Solo)
G:------------------------------------------------|
D:------------------------------------------------|  x4
A:--5-4--------5-4--------5-4--------------2-3-4-5|
E:0-----0-0--0-----0-0--0-----0-0--0-7-5-7--------|

G:----------------------|
D:----------7-----------|
A:----------------------|
E:0-5---0-5---0-5---0-5~|

G:0---------------------|
D:---0-----------------0|  x15
A:----------------------|
E:------5--3--5--3--5---|

(Outro)
G:--------|
D:--------|
A:--------|
E:5--5--5~|
 
 

Тональность:

Это должно быть в ТОП-листе! - Топ-лист композиций



Назад
Рекомендуем посмотреть другие песни исполнителя «AC/DC»:

  • Комменты Fb ()
  • Комменты ВК



Добавить в Избранное Браузера
Сохранить здесь Очистить


x

0


+
-

+
-

-

Авторизация





Зарегистрироваться

M

Дата и время

  • 15:02:00
     

Социальные ссылки


Наши приложения

  • Muzbank App Play Market
  • Muzbank Amazon App