MUZBANK


МУЗЫКАЛЬНО-ИНФОРМАЦИОННЫЙ БАНК





AAC/DC • Whole Lotta Rosie (аккорды и текст - chords & lyrics)


835

Print

Видео «Whole Lotta Rosie (AC/DC)»

Видео клипы к песне подбираются автоматически сайтом youtube. Возможны некоторые несоответствия клипов песне.

↑ Спрятать рекламу ↑






Introduction: (2 bar count in)

A5 C5 D5 C5 A5 Verse: A5 C5 D5 C5 A5
E|---------------------------||--------------------|---------------------------|
B|---------------------------||o-------------------|-------------------------o-|
G|------2--5-----7-----5--2--||----(4 beats rest)--|--2--5-----7-----5--2------|
D|------2--5-----7-----5--2--||--------------------|--2--5-----7-----5--2------|
A|------0--3--0--5--0--3--0--||o-------------------|--0--3--0--5--0--3--0----o-|
E|---------------------------||--------------------|---------------------------|
(Play this section 10 times)

E|---------------------------|--------------------------|-------------------|
B|---------------------------|--------------------------|-------------------|
G|-----(4 beats rest)--------|-----(4 beats rest)-------|----(4 beats rest)-|
D|---------------------------|--------------------------|-------------------|
A|---------------------------|--------------------------|-------------------|
E|---------------------------|--------------------------|-------------------|

A5 C5 D5 C5 A5
E|------------------------||------------------------|-------------------------|
B|------------------------||o-----------------------|-----------------------o-|
G|----2--5-----7-----5--2-||----2--------2-----0--2-|-------------------------|
D|----2--5-----7-----5--2-||----2--------2-----0--2-|-------------------------|
A|----0--3--0--5--0--3--0-||o---0--0--0--0--0--0--0-|-0--3--0--5--0--3--0---o-|
E|------------------------||------------------------|-------------------------|
(Play this section 4 times)

Verse 1

E|-----------------------|----------------------|
B|-----------------------|----------------------|
G|--2--------2-----0--2--|----------------------|
D|--2--------2-----0--2--|----------------------|
A|--0--0--0--0--0--0--0--|--0--3--0--5--0--3--0-|
E|-----------------------|----------------------|

E|------------------------|----------------------|
B|------------------------|----------------------|
G|---2--------2-----0--2--|----------------------|
D|---2--------2-----0--2--|----------------------|
A|---0--0--0--0--0--0--0--|--0--3--0--5--0--3--0-|
E|------------------------|----------------------|

E|-----------------------|----------------------|
B|-----------------------|----------------------|
G|--2--------2-----0--2--|----------------------|
D|--2--------2-----0--2--|----------------------|
A|--0--0--0--0--0--0--0--|--0--3--0--5--0--3--0-|
E|-----------------------|----------------------|

E|------------------------|----------------------|
B|------------------------|----------------------|
G|---2--------2-----0--2--|----------------------|
D|---2--------2-----0--2--|----------------------|
A|---0--0--0--0--0--0--0--|--0--3--0--5--0--3--0-|
E|------------------------|----------------------|

E|-----------------------|----------------------|
B|-----------------------|----------------------|
G|--2--------2-----0--2--|----------------------|
D|--2--------2-----0--2--|----------------------|
A|--0--0--0--0--0--0--0--|--0--3--0--5--0--3--0-|
E|-----------------------|----------------------|

E|------------------------|----------------------|
B|------------------------|----------------------|
G|---2--------2-----0--2--|----------------------|
D|---2--------2-----0--2--|----------------------|
A|---0--0--0--0--0--0--0--|--0--3--0--5--0--3--0-|
E|------------------------|----------------------|

E|----------------------|----------------------|
B|----------------------|----------------------|
G|-2--------2-----0--2--|----------------------|
D|-2--------2-----0--2--|----------------------|
A|-0--0--0--0--0--0--0--|--0--3--0--5--0--3--0-|
E|----------------------|----------------------|

E|------------------------|------------------------|
B|------------------------|------------------------|
G|---2--------2-----0--2--|-2--2--2--2--2--2--2--2-|
D|---2--------2-----0--2--|-2--2--2--2--2--2--2--2-|
A|---0--0--0--0--0--0--0--|-0--0--0--0--0--0--0--0-|
E|------------------------|------------------------|

Chorus:

F5 F5 D5
E|-----------------------|----------------------|-----------------|
B|-----------------------|----------------------|----3-----3----3-|
G|-----------------------|----------------------|----2-----2----2-|
D|--3---3--3-------------|----(3)---------------|----0-----0----0-|
A|--3---3--3-(Let Ring)--|----(3)---------------|-----------------|
E|--1---1--1-------------|----(1)---------------|-----------------|
A5 G5 A5 G5
E|-------------------3---|----------------------|---------------------3-|
B|-------------------3---|----------------------|---------------------3-|
G|-2--------------0--0---|----------------------|---2--------------0--0-|
D|-2--------------0--0---|----------------------|---2--------------0--0-|
A|-0--------------0------|----------------------|---0--------------0----|
E|-------------------3---|----------------------|---------------------3-|

A5 G5 G5 G5 G5 G5 G5 G5
E|-------------------3--|----------|-------------------------|-----------------|
B|-------------------3--|----------|------3------3------3----|---3-----3-----3-|
G|-2--------------0--0--|----------|------0------0------0----|---0-----0-----0-|
D|-2--------------0--0--|----------|------0------0------0----|---0-----0-----0-|
A|-0--------------0-----|----------|-------------------------|-----------------|
E|-------------------3--|----------|------3------2------3----|---2-----3-----4-|

E|----------------------|-----------------------|
B|----------------------|-----------------------|
G|-2--------2-----0--2--|-----------------------|
D|-2--------2-----0--2--|-----------------------|
A|-0--0--0--0--0--0--0--|--0--3--0--5--0--3--0--|
E|----------------------|-----------------------|

E|------------------------|----------------------|
B|------------------------|----------------------|
G|---2--------2-----0--2--|----------------------|
D|---2--------2-----0--2--|----------------------|
A|---0--0--0--0--0--0--0--|--0--3--0--5--0--3--0-|
E|------------------------|----------------------|

Verse 2

E|----------------------|-----------------------|
B|----------------------|-----------------------|
G|-2--------2-----0--2--|-----------------------|
D|-2--------2-----0--2--|-----------------------|
A|-0--0--0--0--0--0--0--|--0--3--0--5--0--3--0--|
E|----------------------|-----------------------|

E|------------------------|----------------------|
B|------------------------|----------------------|
G|---2--------2-----0--2--|----------------------|
D|---2--------2-----0--2--|----------------------|
A|---0--0--0--0--0--0--0--|--0--3--0--5--0--3--0-|
E|------------------------|----------------------|

E|----------------------|-----------------------|
B|----------------------|-----------------------|
G|-2--------2-----0--2--|-----------------------|
D|-2--------2-----0--2--|-----------------------|
A|-0--0--0--0--0--0--0--|--0--3--0--5--0--3--0--|
E|----------------------|-----------------------|

E|------------------------|----------------------|
B|------------------------|----------------------|
G|---2--------2-----0--2--|----------------------|
D|---2--------2-----0--2--|----------------------|
A|---0--0--0--0--0--0--0--|--0--3--0--5--0--3--0-|
E|------------------------|----------------------|

E|----------------------|-----------------------|
B|----------------------|-----------------------|
G|-2--------2-----0--2--|-----------------------|
D|-2--------2-----0--2--|-----------------------|
A|-0--0--0--0--0--0--0--|--0--3--0--5--0--3--0--|
E|----------------------|-----------------------|

E|------------------------|----------------------|
B|------------------------|----------------------|
G|---2--------2-----0--2--|----------------------|
D|---2--------2-----0--2--|----------------------|
A|---0--0--0--0--0--0--0--|--0--3--0--5--0--3--0-|
E|------------------------|----------------------|

E|----------------------|-----------------------|
B|----------------------|-----------------------|
G|-2--------2-----0--2--|-----------------------|
D|-2--------2-----0--2--|-----------------------|
A|-0--0--0--0--0--0--0--|--0--3--0--5--0--3--0--|
E|----------------------|-----------------------|

E|------------------------|------------------------|
B|------------------------|------------------------|
G|---2--------2-----0--2--|-2--2--2--2--2--2--2--2-|
D|---2--------2-----0--2--|-2--2--2--2--2--2--2--2-|
A|---0--0--0--0--0--0--0--|-0--0--0--0--0--0--0--0-|
E|------------------------|------------------------|

Chorus:

F5 F5 D5
E|-----------------------|----------------------|-----------------|
B|-----------------------|----------------------|----3-----3----3-|
G|-----------------------|----------------------|----2-----2----2-|
D|--3---3--3-------------|----(3)---------------|----0-----0----0-|
A|--3---3--3-(Let Ring)--|----(3)---------------|-----------------|
E|--1---1--1-------------|----(1)---------------|-----------------|

A5 G5 A5 G5
E|-------------------3---|----------------------|---------------------3-|
B|-------------------3---|----------------------|---------------------3-|
G|-2--------------0--0---|----------------------|---2--------------0--0-|
D|-2--------------0--0---|----------------------|---2--------------0--0-|
A|-0--------------0------|----------------------|---0--------------0----|
E|-------------------3---|----------------------|---------------------3-|

A5 G5 G5 G5 G5 G5 G5 G5
E|-------------------3--|------|-------------------------|---------------------|
B|-------------------3--|------|------3------3------3----|---3-----3-----3-----|
G|-2--------------0--0--|------|------0------0------0----|---0-----0-----0---5-|
D|-2--------------0--0--|------|------0------0------0----|---0-----0-----0-----|
A|-0--------------0-----|------|-------------------------|---------------------|
E|-------------------3--|------|------3------2------3----|---2-----3-----4-----|

Solo:

A5 ~~~~~
E|----------------------------------|--------------------------|
B|----------------------------------|--------------------------|
G|--5--5-5-5-5-5-5-5-5-5-5-5-5-5-5--|---5----------------5--5--|
D|----------------------------------|------7--------(7)--------|
A|----------------------------------|--------------------------|
E|----------------------------------|--------------------------|

E|---------------------------|
B|---------------------------|
G|--5-5--5-5--5-5--5-5--5--5-|
D|---------------------------|
A|---------------------------|
E|---------------------------|

~~~~~~
E|----------------------|----------------------------|
B|----------------------|----------------------------|
G|-----------------5-5--|--5-5--5--5-5--5-5--5--5-5--|
D|--7---------(7)-------|----------------------------|
A|----------------------|----------------------------|
E|----------------------|----------------------------|

E|------------------------------|
B|------------------------------|
G|--5-5--5--5-5-5-5-5-5-5-5⁄4/5-|
D|------------------------------|
A|------------------------------|
E|------------------------------|

~~~~~ ~~~~
E|-------------------------|-------------5------|--------------------------5---|
B|-------------8-----------|-----------------8--|---5------------------------8-|
G|--7-(bend)------7-(full)------>---------------|-----7-5-7-5---7---5----------|
D|-------------------------|--------------------|-------------7---7------------|
A|-------------------------|--------------------|------------------------------|
E|-------------------------|--------------------|------------------------------|

E|----------------------------------------|-----------|
B|--5---------------------8-(bend & hold for 4 beats)-|
G|----7-5-7-5---7---5---------------------|-----------|
D|------------7---7-----------------------|-----------|
A|----------------------------------------|-----------|
E|----------------------------------------|-----------|

E|-----------------7--8----|--7-----7-8-7------7-8-7------7-8-7------7-8-|
B|--8-(hold)---------------|----10---------10---------10---------10------|
G|-------------------------|---------------------------------------------|
D|-------------------------|---------------------------------------------|
A|-------------------------|---------------------------------------------|
E|-------------------------|---------------------------------------------|

E|--7-----7-8-7------7-8-7------7-8-8-10-8----|-7------------------------------|
B|----10---------10---------10-------------10-|---9-7-5-7-5--------------------|
G|--------------------------------------------|-------------7--5-7-5⁄4----5----|
D|--------------------------------------------|-------------------------7----7-|
A|--------------------------------------------|--------------------------------|
E|--------------------------------------------|--------------------------------|

E|-----------------------------|------------------|----5--8--8--7-|
B|----------------13--15(bend)-|-------15 (bend)--|---------------|
G|-----------------------------|------------------|--7------------|
D|-----7--(7)-⁄4---------------|------------------|---------------|
A|--9--------------------------|------------------|---------------|
E|-----------------------------|------------------|---------------|

E|--5--7--5-----5-------------------|------------------|
B|-----------8----7-8-7-5-7-5-------|------------------|
G|-----------------------------7-5--|--~~~~~-------(5)-|
D|----------------------------------|------------------|
A|----------------------------------|------------------|
E|----------------------------------|------------------|

(Guitar 2 Cue)
~~~~~ A5 C5 D5 C5 A5
E|--------------------------|----------------------------|
B|o-------------------------|--------------------------o-|
G|------5------7------5-----|-----2--5-----7-----5--2----|
D|---7------7------7-----7--|-----2--5-----7-----5--2----|
A|o-------------------------|-----0--3--0--5--0--3--0--o-|
E|--------------------------|----------------------------|
(Play this section 6 times)

E|--------------------|------------------|------------------|------------------|
B|--------------------|------------------|------------------|------------------|
G|----5----7----5-----|---5----7----5----|---5----7----5----|---5----7----5----|
D|--7---7----7-----7--|-7---7----7-----7-|-7---7----7-----7-|-7---7----7-----7-|
A|--------------------|------------------|------------------|------------------|
E|--------------------|------------------|------------------|------------------|

~~ ~~ ~~
E|------------------------|------------------------|-----------------------|
B|------------7-----------|------------7-----------|------------7----------|
G|-----5------7-----5-----|-----5------7-----5-----|-----5------7-----5----|
D|--7-----7------7-----7--|--7-----7------7-----7--|--7-----7------7-----7-|
A|------------------------|------------------------|-----------------------|
E|------------------------|------------------------|-----------------------|

E|--------|-5---------------------------------|--------------------------------|
B|------8-|---8-5---5--8----5-8-5-----5--8--5-|---5--8-5----5--8-5--8--5-------|
G|--------|-------7------7---------7----------|-7---------7---------------5--7-|
D|--------|-----------------------------------|--------------------------------|
A|-(7)----|-----------------------------------|--------------------------------|
E|--------|-----------------------------------|--------------------------------|

~~~
E|-----5----------------------|---------------------------|---20-----20-(bend)-|
B|-------8-5-----5------------|-------(20)------20-(bend)-|--------------------|
G|--7---------7----7-5----7-5-|---(5)---------------------|--------------------|
D|----------------------7-----|---------------------------|--------------------|
A|----------------------------|---------------------------|--------------------|
E|----------------------------|---------------------------|--------------------|

E|--17--------------17--------------17--------|
B|-----20--17--20------20--17--20-------20-17-|
G|--------------------------------------------|
D|--------------------------------------------|
A|--------------------------------------------|
E|--------------------------------------------|

E|-----17--------------17--------------17--------|
B|-20-----20--17--20------20--17--20-------20-17-|
G|-----------------------------------------------|
D|-----------------------------------------------|
A|-----------------------------------------------|
E|-----------------------------------------------|

E|-----17-20-17------17-----------------------|
B|-20------------20-----20-17-----17-20-17----|
G|-----------------------------19----------19-|
D|--------------------------------------------|
A|--------------------------------------------|
E|--------------------------------------------|

E|17----------17----------17---------17------------|
B|17-20-17----17-20--17---17--20--17-17--20--17----|
G|---------19-----------19----------19----------19-|
D|-------------------------------------------------|
A|-------------------------------------------------|
E|-------------------------------------------------|

E|--17----------17------------17⁄--|----------------------------------|
B|--17-20-17----17-20--17-----17⁄--|----------------------------------|
G|-----------19-----------19-------|--7-------------------------------|
D|---------------------------------|-----5--7--5--7-----5-(5)---------|
A|---------------------------------|-----------------7----------0--0--|
E|---------------------------------|----------------------------------|

E|-----------------|
B|--20-(full bend)-|
G|-----------------|
D|-----------------|
A|-----------------|
E|-----------------|

Chorus:

F5 F5 D5
E|-----------------------|----------------------|-----------------|
B|-----------------------|----------------------|----3-----3----3-|
G|-----------------------|----------------------|----2-----2----2-|
D|--3---3--3-------------|----(3)---------------|----0-----0----0-|
A|--3---3--3-(Let Ring)--|----(3)---------------|-----------------|
E|--1---1--1-------------|----(1)---------------|-----------------|
A5 G5 A5 G5
E|-------------------3---|----------------------|---------------------3-|
B|-------------------3---|----------------------|---------------------3-|
G|-2--------------0--0---|----------------------|---2--------------0--0-|
D|-2--------------0--0---|----------------------|---2--------------0--0-|
A|-0--------------0------|----------------------|---0--------------0----|
E|-------------------3---|----------------------|---------------------3-|

A5 G5 G5 G5 G5 G5 G5 G5
E|-------------------3--|----------|-------------------------|-----------------|
B|-------------------3--|----------|------3------3------3----|---3-----3-----3-|
G|-2--------------0--0--|----------|------0------0------0----|---0-----0-----0-|
D|-2--------------0--0--|----------|------0------0------0----|---0-----0-----0-|
A|-0--------------0-----|----------|-------------------------|-----------------|
E|-------------------3--|----------|------3------2------3----|---2-----3-----4-|

A A
E|---------------|----------------|-----------------|---------|
B|--2------------|----------------|---2-------------|---------|
G|--2------------|----------------|---2-------------|---------|
D|--2------------|----------------|---2-------------| ( END )-|
A|---------------|----------------|-----------------|---------|
E|---------------|----------------|-----------------|---------|





Wanna tell you story
About woman I know
When it comes to lovin'
She steals the show
She ain't exactly pretty
Ain't exactly small
Fourt'two thirt'ninefiftysix
You could say she's got it all

Never had a woman
Never had a woman like you
Doin' all the things
Doin' all the things you do
Ain't no fairy story
Ain't no skin and bones
But you give it all you got
Weighin' in at nineteen stone
You're a whole lotta woman
A whole lotta woman
Whole lotta Rosie
Whole lotta Rosie
Whole lotta Rosie
And you're a whole lotta woman

Honey you can do it
Do it to me all night long
Only one who turn me
Only one who turn me on
All through the night time
Right around the clock
To my surprise
Rosie never stops
She was a whole lotta woman
Whole lotta woman
Whole lotta Rosie
Whole lotta Rosie
Whole lotta Rosie
A whole lotta woman

Whole lotta woman
Whole lotta woman
Whole lotta Rosie
Whole lotta Rosie
You're a whole lotta Rosie
A whole lotta woman

Whole lotta Rosie
Whole lotta woman

Тональность:

Это должно быть в ТОП-листе! - Топ-лист композиций



Назад
Рекомендуем посмотреть другие песни исполнителя «AC/DC»:

  • Комменты Fb ()
  • Комменты ВК



Добавить в Избранное Браузера
Сохранить здесь Очистить


x

0


+
-

+
-

-

Авторизация





Зарегистрироваться

M

Дата и время

  • 23:24:38
     

Социальные ссылки


Наши приложения

  • Muzbank App Play Market
  • Muzbank Amazon App