MUZBANK


МУЗЫКАЛЬНО-ИНФОРМАЦИОННЫЙ БАНК





AAC/DC • War Machine (аккорды и текст - chords & lyrics)


53

Print

Видео «War Machine (AC/DC)»

Видео клипы к песне подбираются автоматически сайтом youtube. Возможны некоторые несоответствия клипов песне.

↑ Спрятать рекламу ↑





You put your foot to the floor
Don′t need no more
You′ve been digging all around
While you′re messing about

Better catch her name
Come on in
Gimme that thing
That thing gone wild

War Machine WAR MACHINE
War Machine WAR MACHINE

Make a stand show your hand
Calling a high command
Don′t think just demand
I′m like a bird of prey

Better catch her name
Come on in
Gimme that thing
That thing gone wild

War Machine WAR MACHINE
War Machine WAR MACHINE

Better watch your back
And cover your tracks
Kick your foot through the door
Hit the deck know the score
They′re taken by surprise
And here′s mud in your eyes

Let′s erase the name
That you should have forgove
Call of the wild
Hurry for naught
That thing gone wild

War Machine WAR MACHINE
War Machine WAR MACHINE

That thing gone wild

War Machine WAR MACHINE
War Machine WAR MACHINE
War Machine WAR MACHINE
War Machine WAR MACHINE


Gtr I (E A D G B E) - ′Moderate Distortion′
Gtr II (E A D G B E) - ′Moderate Distortion′
Gtr III (E A D G B E) - ′Distortion′
Gtr IV (E A D G B E) - ′Distortion 2′

 Intro
  Moderately Q=134
                       G5
 4/4
  Gtrs I, II
  Wx3          H.      Q
|------------|---------3--|
|------------|---------3--|
|------------|---------0--|
|------------|---------0--|
|------------|------------|
|------------|---------3--|



  D5   A5     D5     A5   G5E5I A5E5     G5E5I A5E5 G5
  Gtr III
  W           W           E E E E H      E E E E H
|-----------|-----------|-3-0-0-0-0----|-3-0-0-0-0-----|
|-----------|-----------|--------------|---------------|
|-----------|-----------|--------------|---------------|
|-----------|-----------|--------------|---------------|
|-----------|-----------|--------------|---------------|
|-----------|-----------|--------------|---------------|

|
| Gtrs I, II
| H    H      H    H      E E E E H      E E E E Q  Q
|-----------|-----------|--------------|------------3--|
|-3---------|-3---------|--------------|------------3--|
|-2----2----|-2----2----|--------------|------------0--|
|-0----2----|-0----2----|--------------|------------0--|
|------0----|------0----|-5-----7------|-5-----7-------|
|-----------|-----------|-3-0-0-5-0----|-3-0-0-5-0--3--|



  D5       A5   D5     A5V  G5E5I A5E5     G5E5I A5E5 G5   D5     A5
  +W            W           E E E E H      E E E E H       +W
|-(0)---------|-----------|-3-0-0-0-0----|-3-0-0-0-0-----|-(0)---------|
|-------------|-----------|--------------|---------------|-------------|
|-------------|-----------|--------------|---------------|-------------|
|-------------|-----------|--------------|---------------|-------------|
|-------------|-----------|--------------|---------------|-------------|
|-------------|-----------|--------------|---------------|-------------|

|
|  H     H      H    H      E E E E H      E E E E Q  Q     H     H
|-------------|-----------|--------------|------------3--|-------------|
|--3----------|-3---------|--------------|------------3--|--3----------|
|--2-----2----|-2----2----|--------------|------------0--|--2-----2----|
|--0-----2----|-0----2----|--------------|------------0--|--0-----2----|
|--------0----|------0----|-5-----7------|-5-----7-------|--------0----|
|-------------|-----------|-3-0-0-5-0----|-3-0-0-5-0--3--|-------------|



  D5   A5     G5E5I A5E5     G5E5I A5E5 G5   D5      A5        D5      A5
  W           E E E E H      E E E E H       E E E E E E E E   E E E E E E E E
|-----------|-3-0-0-0-0----|-3-0-0-0-0-----|-3-0-0-0-0-0-0-0-|-3-0-0-0-0-0-0-0-|
|-----------|--------------|---------------|-----------------|-----------------|
|-----------|--------------|---------------|-----------------|-----------------|
|-----------|--------------|---------------|-----------------|-----------------|
|-----------|--------------|---------------|-----------------|-----------------|
|-----------|--------------|---------------|-----------------|-----------------|

|
| H    H      E E E E H      E E E E Q  Q    H       H         H       H
|-----------|--------------|------------3--|-----------------|-----------------|
|-3---------|--------------|------------3--|-3---------------|-3---------------|
|-2----2----|--------------|------------0--|-2-------2-------|-2-------2-------|
|-0----2----|--------------|------------0--|-0-------2-------|-0-------2-------|
|------0----|-5-----7------|-5-----7-------|---------0-------|---------0-------|
|-----------|-3-0-0-5-0----|-3-0-0-5-0--3--|-----------------|-----------------|



  G5E5I A5E5        G5E5I A5E5        G5E5I A5E5
  E E E E E E E E   E E E E E E E E   E E E E E E E E
|-3-0-0-0-0-0-0-0-|-3-0-0-0-0-0-0-0-|-3-0-0-0-0-0-0-0-|
|-----------------|-----------------|-----------------|
|-----------------|-----------------|-----------------|
|-----------------|-----------------|-----------------|
|-----------------|-----------------|-----------------|
|-----------------|-----------------|-----------------|

|
| E E E E H         E E E E H         E E E E H
|-----------------|-----------------|-----------------|
|-----------------|-----------------|-----------------|
|-----------------|-----------------|-----------------|
|-----------------|-----------------|-----------------|
|-5-----7---------|-5-----7---------|-5-----7---------|
|-3-0-0-5-0-------|-3-0-0-5-0-------|-3-0-0-5-0-------|



  G5E5I A5E5  G5        D5
  E E E E E E E     E   W
|-3-0-0-0-0-0-0-----0-|--------------------|
|---------------------|--------------------|
|---------------------|--------------------|
|---------------------|--------------------|
|---------------------|--------------------|
|---------------------|--------------------|

|
| E E E E Q   Q         E E E E E E Q
|---------------------|--------------------|
|-------------3-------|-3-3-3-3-3-3--------|
|-------------0-------|-2-2-2-2-2-2--------|
|-------------0-------|-0-0-0-0-0-0--------|
|-5-----7-------------|--------------------|
|-3-0-0-5-0---3b3.5---|-------------3b3.5--|



  A5                G5E5I A5E5        G5E5I A5E5
  W                 E E E E E E E E   E E E E E E E E
|-----------------|-3-0-0-0-0-0-0-0-|-3-0-0-0-0-0-0-0-|
|-----------------|-----------------|-----------------|
|-----------------|-----------------|-----------------|
|-----------------|-----------------|-----------------|
|-----------------|-----------------|-----------------|
|-----------------|-----------------|-----------------|

|
| E E E E E E E E   E E E E E E E E   E E E E E E E E
|-----------------|-----------------|-----------------|
|-----------------|-----------------|-----------------|
|-2-2-2-2-2-2-2-2-|-----------------|-----------------|
|-2-2-2-2-2-2-2-2-|-----------------|-----------------|
|-0-0-0-0-0-0-0-0-|-5-----7---------|-5-----7---------|
|-----------------|-3-0-0-5-0-0-0-0-|-3-0-0-5-0-0-0-0-|



  G5E5I A5E5        G5E5I A5E5
  E E E E E E E E   E E E E E E E E
|-3-0-0-0-0-0-0-0-|-3-0-0-0-0-0-0-0-||
|-----------------|-----------------||
|-----------------|-----------------||
|-----------------|-----------------||
|-----------------|-----------------||
|-----------------|-----------------||

|
| E E E E E E E E   E E E E E E E E
|-----------------|-----------------||
|-----------------|-----------------||
|-----------------|-----------------||
|-----------------|-----------------||
|-5-----7---------|-5-----7---------||
|-3-0-0-5-0-0-0-0-|-3-0-0-5-0-0-0-0-||



 Verse 1
  G5E5I A5E5        G5E5  A5E5        G5E5  A5E5        G5E5I A5E5
  Gtrs I, II
  E E E E E E E E   E E E E E E E E   E E E E E E E E   E E E E E E E E
|-----------------|-----------------|-----------------|-----------------|
|-----------------|-----------------|-----------------|-----------------|
|-----------------|-----------------|-----------------|-----------------|
|-----------------|-----------------|-----------------|-----------------|
|-5-----7---------|-5-----7---------|-5-----7---------|-5-----7---------|
|-3-0-0-5-0-0-0-0-|-3-0-0-5-0-0-0-0-|-3-0-0-5-0-0-0-0-|-3-0-0-5-0-0-0-0-|



  G5E5I A5E5        G5E5I A5E5        G5E5I A5E5  G5
  E E E E E E E E   E E E E E E E E   E E E E E E Q
|-----------------|-----------------|-------------3--||
|-----------------|-----------------|-------------3--||
|-----------------|-----------------|-------------0--||
|-----------------|-----------------|-------------0--||
|-5-----7---------|-5-----7---------|-5-----7--------||
|-3-0-0-5-0-0-0-0-|-3-0-0-5-0-0-0-0-|-3-0-0-5-0-0-3--||



 Pre-Chorus
  D5          A5        D5          A5        D5          A5
  E E E E     E E E E   E E E E     E E E E   E E E E     E E E E
|---------------------|---------------------|---------------------|
|-3-3-3---------------|-3-3-3---------------|-3-3-3---------------|
|-2-2-2-------2-2-2-2-|-2-2-2-------2-2-2-2-|-2-2-2-------2-2-2-2-|
|-0-0-0-------2-2-2-2-|-0-0-0-------2-2-2-2-|-0-0-0-------2-2-2-2-|
|-------------0-0-0-0-|-------------0-0-0-0-|-------------0-0-0-0-|
|-------3b3.5---------|-------3b3.5---------|-------3b3.5---------|



                                         Chorus
  D5                   A5                 G5E5I A5E5        G5E5I A5E5
  Gtr III
  W                    W                  E E E E E E E E   E E E E E E E E
|--------------------|-----------------||-3-0-0-0-0-0-0-0-|-3-0-0-0-0-0-0-0-|
|--------------------|-----------------||-----------------|-----------------|
|--------------------|-----------------||-----------------|-----------------|
|--------------------|-----------------||-----------------|-----------------|
|--------------------|-----------------||-----------------|-----------------|
|--------------------|-----------------||-----------------|-----------------|

|
| Gtrs I, II
| E E E E E E Q        E E E E E E E E    E E E E H         E E E E H
|--------------------|-----------------||-----------------|-----------------|
|-3-3-3-3-3-3--------|-----------------||-----------------|-----------------|
|-2-2-2-2-2-2--------|-2-2-2-2-2-2-2-2-||-----------------|-----------------|
|-0-0-0-0-0-0--------|-2-2-2-2-2-2-2-2-||-----------------|-----------------|
|--------------------|-0-0-0-0-0-0-0-0-||-5-----7---------|-5-----7---------|
|-------------3b3.5--|-----------------||-3-0-0-5-0-------|-3-0-0-5-0-------|



  G5E5I A5E5        G5E5I A5E5  G5
  E E E E E E E E   E E E E E E E     E
|-3-0-0-0-0-0-0-0-|-3-0-0-0-0-0-0-----0-||
|-----------------|---------------------||
|-----------------|---------------------||
|-----------------|---------------------||
|-----------------|---------------------||
|-----------------|---------------------||

|
| E E E E H         E E E E Q   Q
|-----------------|---------------------||
|-----------------|-------------3-------||
|-----------------|-------------0-------||
|-----------------|-------------0-------||
|-5-----7---------|-5-----7-------------||
|-3-0-0-5-0-------|-3-0-0-5-0---3b3.5---||



 Verse 2
  G5E5I A5E5        G5E5I A5E5        G5E5I A5E5        G5E5I A5E5
  Gtrs I, II
  E E E E E E E E   E E E E E E E E   E E E E E E E E   E E E E E E E E
|-----------------|-----------------|-----------------|-----------------|
|-----------------|-----------------|-----------------|-----------------|
|-----------------|-----------------|-----------------|-----------------|
|-----------------|-----------------|-----------------|-----------------|
|-5-----7---------|-5-----7---------|-5-----7---------|-5-----7---------|
|-3-0-0-5-0-0-0-0-|-3-0-0-5-0-0-0-0-|-3-0-0-5-0-0-0-0-|-3-0-0-5-0-0-0-0-|



  G5E5I A5E5        G5E5I A5E5        G5E5I A5E5  G5
  E E E E E E E E   E E E E E E E E   E E E E E E Q
|-----------------|-----------------|-------------3--||
|-----------------|-----------------|-------------3--||
|-----------------|-----------------|-------------0--||
|-----------------|-----------------|-------------0--||
|-5-----7---------|-5-----7---------|-5-----7--------||
|-3-0-0-5-0-0-0-0-|-3-0-0-5-0-0-0-0-|-3-0-0-5-0-0-3--||



 Pre-Chorus
  D5          A5        D5          A5        D5          A5
  E E E E     E E E E   E E E E     E E E E   E E E E     E E E E
|---------------------|---------------------|---------------------|
|-3-3-3---------------|-3-3-3---------------|-3-3-3---------------|
|-2-2-2-------2-2-2-2-|-2-2-2-------2-2-2-2-|-2-2-2-------2-2-2-2-|
|-0-0-0-------2-2-2-2-|-0-0-0-------2-2-2-2-|-0-0-0-------2-2-2-2-|
|-------------0-0-0-0-|-------------0-0-0-0-|-------------0-0-0-0-|
|-------3b3.5---------|-------3b3.5---------|-------3b3.5---------|



                                         Chorus
  D5                   A5                 G5E5I A5E5        G5E5I A5E5
  Gtr III
  W                    W                  E E E E E E E E   E E E E E E E E
|--------------------|-----------------||-3-0-0-0-0-0-0-0-|-3-0-0-0-0-0-0-0-|
|--------------------|-----------------||-----------------|-----------------|
|--------------------|-----------------||-----------------|-----------------|
|--------------------|-----------------||-----------------|-----------------|
|--------------------|-----------------||-----------------|-----------------|
|--------------------|-----------------||-----------------|-----------------|

|
| Gtrs I, II
| E E E E E E Q        E E E E E E E E    E E E E E E E E   E E E E E E E E
|--------------------|-----------------||-----------------|-----------------|
|-3-3-3-3-3-3--------|-----------------||-----------------|-----------------|
|-2-2-2-2-2-2--------|-2-2-2-2-2-2-2-2-||-----------------|-----------------|
|-0-0-0-0-0-0--------|-2-2-2-2-2-2-2-2-||-----------------|-----------------|
|--------------------|-0-0-0-0-0-0-0-0-||-5-----7---------|-5-----7---------|
|-------------3b3.5--|-----------------||-3-0-0-5-0-0-0-0-|-3-0-0-5-0-0-0-0-|



                                      Interlude/Breakdown
  G5E5I A5E5        G5E5I A5E5
                                       Gtr I        Gtr IV
                                                          <
                                                          ~~~~~~~~~~~~
  E E E E E E E E   E E E E E E E E    Q  H.        H     H       +W
|-3-0-0-0-0-0-0-0-|-3-0-0-0-0-0-0-0-||------------|------------|---------|
|-----------------|-----------------||------------|------------|---------|
|-----------------|-----------------||------------|------14----|-(14)----|
|-----------------|-----------------||------------|------14----|-(14)----|
|-----------------|-----------------||-2----------|------------|---------|
|-----------------|-----------------||-0----------|------------|---------|

|
| E E E E E E E E   E E E E E E E E    W            W              W
|-----------------|-----------------||------------|------------|---------|
|-----------------|-----------------||------------|------------|---------|
|-----------------|-----------------||------------|------------|---------|
|-----------------|-----------------||------------|------------|---------|
|-5-----7---------|-5-----7---------||------------|------------|---------|
|-3-0-0-5-0-0-0-0-|-3-0-0-5-0-0-0-0-||------------|------------|---------|



            G5   D5      A5     D5      A5
    ~~~~~~~~~~~~~~~~~~~~~~~~~~~~~~~~~
   +W             +W             +W
|--------------|--------------|--------------|
|--------------|--------------|--------------|
|-(14)---------|-(14)---------|-(14)---------|
|-(14)---------|-(14)---------|-(14)---------|
|--------------|--------------|--------------|
|--------------|--------------|--------------|

|
| Gtrs I, II
|   H.      Q      H     H        H     H
|-----------3--|--------------|--------------|
|-----------3--|---3----------|---3----------|
|-----------0--|---2-----2----|---2-----2----|
|-----------0--|---0-----2----|---0-----2----|
|--------------|---------0----|---------0----|
|-----------3--|--------------|--------------|



  G5E5I A5E5        G5E5I A5E5  G5    D5      A5
  Gtr III
  E E E E E E E E   E E E E E E E E   E E E E E E E E
|-3-0-0-0-0-0-0-0-|-3-0-0-0-0-0-0-0-|-3-0-0-0-0-0-0-0-|
|-----------------|-----------------|-----------------|
|-----------------|-----------------|-----------------|
|-----------------|-----------------|-----------------|
|-----------------|-----------------|-----------------|
|-----------------|-----------------|-----------------|

|
| Gtrs I, II
| E E E E H         E E E E Q   Q     H       H
|-----------------|-------------3---|-----------------|
|-----------------|-------------3---|-3---------------|
|-----------------|-------------0---|-2-------2-------|
|-----------------|-------------0---|-0-------2-------|
|-5-----7---------|-5-----7---------|---------0-------|
|-3-0-0-5-0-------|-3-0-0-5-0---3---|-----------------|



  D5          A5        G5E5I A5E5
  Gtr IV
      |-3-|
  Q   S S S E H         W
|---------------------|-----------------|
|---------------------|-----------------|
|-----3p2p0-----------|-----------------|
|---------------------|-----------------|
|---------------------|-----------------|
|---------------------|-----------------|

|
| Gtr III
| E E E     E E E E E   E E E E E E E E
|-3-0-0-----0-0-0-0-0-|-3-0-0-0-0-0-0-0-|
|---------------------|-----------------|
|---------------------|-----------------|
|---------------------|-----------------|
|---------------------|-----------------|
|---------------------|-----------------|

|
| Gtrs I, II
| H           H         E E E E H
|---------------------|-----------------|
|-3-------------------|-----------------|
|-2-----------2-------|-----------------|
|-0-----------2-------|-----------------|
|-------------0-------|-5-----7---------|


|---------------------|-3-0-0-5-0-------|


  G5E5I     A5V       G5    D5      A5
                 ~~~
  E  E   E   E   H          W
|-------------------------|-----------------|
|-------------------------|-----------------|
|---[7]-[7]-[9]-[9]-------|-----------------|
|-------------------------|-----------------|
|-------------------------|-----------------|
|-------------------------|-----------------|

|
| E  E   E   E   E  E E E   E E E E E E E E
|-3--0---0---0---0--0-0-0-|-3-0-0-0-0-0-0-0-|
|-------------------------|-----------------|
|-------------------------|-----------------|
|-------------------------|-----------------|
|-------------------------|-----------------|
|-------------------------|-----------------|

|
| E  E   E   E   Q    Q     H       H
|---------------------3---|-----------------|
|---------------------3---|-3---------------|
|---------------------0---|-2-------2-------|
|---------------------0---|-0-------2-------|
|-5----------7------------|---------0-------|
|-3--0---0---5---0----3---|-----------------|



  D5      A5        G5IE5  A5E5
  W                 Q.     E S S S S S S S S
|-----------------|--------------------------|
|-----------------|--------------------------|
|-----------------|--------7-7-7-7-7-7-7-7-7-|
|-----------------|--------------------------|
|-----------------|--------------------------|
|-----------------|--------------------------|

|
| E E E E E E E E   E  E E E E   E   E   E
|-3-0-0-0-0-0-0-0-|-3--0-0-0-0---0---0---0---|
|-----------------|--------------------------|
|-----------------|--------------------------|
|-----------------|--------------------------|
|-----------------|--------------------------|
|-----------------|--------------------------|

|
| H       H         E  E E E H
|-----------------|--------------------------|
|-3---------------|--------------------------|
|-2-------2-------|--------------------------|
|-0-------2-------|--------------------------|
|---------0-------|-5------7-----------------|
|-----------------|-3--0-0-5-0---------------|



  G5IIE5    A5E5       G5
          ~
  S S S S Q   E  E      +E   +S  S
|----------------------------------||
|---------------10b12==(10)r(10)p8-||
|-7-7-7-7-9------------------------||
|----------------------------------||
|----------------------------------||
|----------------------------------||

|
| E   E   E E E  E       E    E
|-3---0---0-0-0--0-------0----0----||
|----------------------------------||
|----------------------------------||
|----------------------------------||
|----------------------------------||
|----------------------------------||

|
| E   E   E E Q          Q
|------------------------3---------||
|------------------------3---------||
|------------------------0---------||
|------------------------0---------||
|-5---------7----------------------||
|-3---0---0-5-0----------3---------||



 Bridge
  D5          A5        D5            A5        D5            A5
  ~~~~~~~~~~~~~~~~~~~~~~~~~~~~~~~~~~~~~~~~~~~~~~~~~~
  W                     +W                      +W
|---------------------|-----------------------|-----------------------|
|---------------------|-----------------------|-----------------------|
|-9-------------------|-(9)-------------------|-(9)-------------------|
|---------------------|-----------------------|-----------------------|
|---------------------|-----------------------|-----------------------|
|---------------------|-----------------------|-----------------------|

|
| Gtrs I, II
| E E E E     E E E E    E  E E E     E E E E    E  E E E     E E E E
|---------------------|-----------------------|-----------------------|
|-3-3-3---------------|--3--3-3---------------|--3--3-3---------------|
|-2-2-2-------2-2-2-2-|--2--2-2-------2-2-2-2-|--2--2-2-------2-2-2-2-|
|-0-0-0-------2-2-2-2-|--0--0-0-------2-2-2-2-|--0--0-0-------2-2-2-2-|
|-------------0-0-0-0-|---------------0-0-0-0-|---------------0-0-0-0-|
|-------3b3.5---------|---------3b3.5---------|---------3b3.5---------|



  D5          A5        D5                   A5
  Gtrs I, II
  E E E E     E E E E   E E E E E E Q        E E E E E E E E
|---------------------|--------------------|-----------------||
|-3-3-3---------------|-3-3-3-3-3-3--------|-----------------||
|-2-2-2-------2-2-2-2-|-2-2-2-2-2-2--------|-2-2-2-2-2-2-2-2-||
|-0-0-0-------2-2-2-2-|-0-0-0-0-0-0--------|-2-2-2-2-2-2-2-2-||
|-------------0-0-0-0-|--------------------|-0-0-0-0-0-0-0-0-||
|-------3b3.5---------|-------------3b3.5--|-----------------||



 Chorus
  Gtr IV
               ~~                                           ~~
   E  E  E  E  Q    +Q       W                  E  E  E  E  Q   E  E
|--------------------------|-----------------|---------------------------|
|--------------------------|-----------------|---------------------------|
|-12-------12--------------|-----------------|-12-------12--------14b16r=|
|----14-14----14---(14)\---|-----------------|----14-14----14------------|
|--------------------------|-----------------|---------------------------|
|--------------------------|-----------------|---------------------------|

|
| Gtr III
|  E  E  E  E  E E   E   E   E E E E E E E E    E  E  E  E  E E E  E
|--3--0--0--0--0-0---0---0-|-3-0-0-0-0-0-0-0-|--3--0--0--0--0-0-0--0-----|
|--------------------------|-----------------|---------------------------|
|--------------------------|-----------------|---------------------------|
|--------------------------|-----------------|---------------------------|
|--------------------------|-----------------|---------------------------|
|--------------------------|-----------------|---------------------------|

|
| Gtrs I, II
|  E  E  E  E  E E   E   E   E E E E E E E E    E  E  E  E  E E E  E
|--------------------------|-----------------|---------------------------|
|--------------------------|-----------------|---------------------------|
|--------------------------|-----------------|---------------------------|
|--------------------------|-----------------|---------------------------|
|--5--------7--------------|-5-----7---------|--5--------7---------------|
|--3--0--0--5--0-0---0---0-|-3-0-0-5-0-0-0-0-|--3--0--0--5--0-0-0--0-----|



                                          Guitar Solo
                                           D5               A5
                                                                     |---3---|
   +S   S  E  E     +S   S  Q   E  S  S     Q.        E      +E   E  E  E    E
|---------------------------------------||-----------------------12------------|
|---------------------------------15-15-||-15b17-----15b17--(15)----12-15------|
|-(14)p12----14b16r(14)p12--------------||-----------15b16--(15)------------14-|
|---------14---------------14-----------||-------------------------------------|
|---------------------------------------||-------------------------------------|
|---------------------------------------||-------------------------------------|

|
|   E      E  E      E      E E E  E        W
|---3------0--0------0------0-0-0--0----||-------------------------------------|
|---------------------------------------||-------------------------------------|
|---------------------------------------||-------------------------------------|
|---------------------------------------||-------------------------------------|
|---------------------------------------||-------------------------------------|
|---------------------------------------||-------------------------------------|

|
|   E      E  E      E      E E E  E        E    E E  E       E   E  E    E
|---------------------------------------||-------------------------------------|
|---------------------------------------||--3----3-3---------------------------|
|---------------------------------------||--2----2-2----------2---2--2----2----|
|---------------------------------------||--0----0-0----------2---2--2----2----|
|---5----------------7------------------||--------------------0---0--0----0----|
|---3------0--0------5------0-0-0--0----||------------3b3.5--------------------|



  D5                             A5
                               ~~
   |--3--|
   S  S  S  S  S  S  S  S      S  +Q     E S S
|-12-------------------------------------------|
|----12----------------------------------------|
|-------14-15-14-12-14-------------------------|
|----------------------14-----14-(14)\-----0-0-|
|----------------------------------------------|
|----------------------------------------------|

|
|  W
|----------------------------------------------|
|----------------------------------------------|
|----------------------------------------------|
|----------------------------------------------|
|----------------------------------------------|
|----------------------------------------------|

|
|  E        E     E     E          E   E E E
|----------------------------------------------|
|--3--------3-----3----------------------------|
|--2--------2-----2----------------2---2-2-2---|
|--0--------0-----0----------------2---2-2-2---|
|----------------------------------0---0-0-0---|
|-----------------------3b3.5------------------|



  D5               A5                 D5             A5
             ~~~~~~~~~~~                                             ~~
                                        |------3------|
   Q.        E      +Q    E S  S       +Q     Q       Q           E  Q    E
|-----------------------------------|----------------------------------------|
|-15--------15-----(15)-------15----|-(15)-----------------------------------|
|-14b16-----14b16--(14)-------17b19-|-(17)---16b18---14b16-------12----------|
|---------------------------0-------|-------------------------------14-------|
|-----------------------------------|------------------------------------12\-|
|-----------------------------------|----------------------------------------|

|
| Gtrs I, II
|  E    E E  E       E  E E E           E  E       E       E      E  E E  E
|-----------------------------------|----------------------------------------|
|--3----3-3-------------------------|---3--3-------3-------------------------|
|--2----2-2----------2--2-2-2-------|---2--2-------2--------------2--2-2--2--|
|--0----0-0----------2--2-2-2-------|---0--0-------0--------------2--2-2--2--|
|--------------------0--0-0-0-------|-----------------------------0--0-0--0--|
|------------3b3.5------------------|----------------------3b3.5-------------|



  D5                      A5
     ~~~~~~~~~~~~~~~~~~~~~~~~~        ~~
  E  Q.      H             Q.      E  H
|-----------------------|----------------------||
|---12------------------|----------------------||
|---12------12----------|-14------12-----------||
|-----------------------|------------14--------||
|-----------------------|----------------------||
|-----------------------|----------------------||

|
| E  E  E E  E E Q         E  E E  E  E E E E
|-----------------------|----------------------||
|-3--3--3-3--3-3--------|----------------------||
|-2--2--2-2--2-2--------|--2--2-2--2--2-2-2-2--||
|-0--0--0-0--0-0--------|--2--2-2--2--2-2-2-2--||
|-----------------------|--0--0-0--0--0-0-0-0--||
|----------------3b3.5--|----------------------||



 Out-Chorus
  G5IE5    A5VE5
   E  S  S  S  S  S  S  S  S  S  S  S  S  S  S
|----------------------------------------------|
|----------------------------------------------|
|-12-------------------12-12-12-12-14-14-14-14-|
|----14-14-14-14-14-14-------------------------|
|----------------------------------------------|
|----------------------------------------------|

|
| Gtr III
|  E  E     E     E     E     E     E     E
|--3--0-----0-----0-----0-----0-----0-----0----|
|----------------------------------------------|
|----------------------------------------------|
|----------------------------------------------|
|----------------------------------------------|
|----------------------------------------------|

|
| Gtrs I, II
|  E  E     E     E     E     E     E     E
|----------------------------------------------|
|----------------------------------------------|
|----------------------------------------------|
|----------------------------------------------|
|--5--------------7----------------------------|
|--3--0-----0-----5-----0-----0-----0-----0----|



  G5IE5       A5V  E5
   S  S  E     +S   S  E  E     E     +Q
|--------------------------------------------|
|------------------15----15----15----(15)\---|
|-12-12-14b16-(14)----14-14b16-14b16-(14)\---|
|--------------------------------------------|
|--------------------------------------------|
|--------------------------------------------|

|
|  E     E      E      E  E     E      E   E
|--3-----0------0------0--0-----0------0---0-|
|--------------------------------------------|
|--------------------------------------------|
|--------------------------------------------|
|--------------------------------------------|
|--------------------------------------------|

|
|  E     E      E      E  E     E      E   E
|--------------------------------------------|
|--------------------------------------------|
|--------------------------------------------|
|--------------------------------------------|
|--5-------------------7---------------------|
|--3-----0------0------5--0-----0------0---0-|



  G5E5I        A5V    E5               G5III E5      A5VE5
            ~~~~                                         ~~
                                        |---3---|
  E  E     +E   E     Q    E.      S    E  E    E  E  E  Q    Q
|-------------------------12---------|-----------------------------|
|---14b15-(14)-14pb15-----15b17---15-|-12------12------------------|
|------------------------------------|----14------12---------------|
|------------------------------------|---------------14-14---------|
|------------------------------------|-----------------------12\---|
|------------------------------------|-----------------------------|

|
| E  E      E   E     E E  E    E       E    E     E  E  E E  E  E
|-3--0------0---0-----0-0--0----0----|--3----0-----0--0--0-0--0--0-|
|------------------------------------|-----------------------------|
|------------------------------------|-----------------------------|
|------------------------------------|-----------------------------|
|------------------------------------|-----------------------------|
|------------------------------------|-----------------------------|

|
| E  E      E   E     E E  E    E       E    E     E  E  E E  E  E
|------------------------------------|-----------------------------|
|------------------------------------|-----------------------------|
|------------------------------------|-----------------------------|
|------------------------------------|-----------------------------|
|-5-------------7--------------------|--5-------------7------------|
|-3--0------0---5-----0-0--0----0----|--3----0-----0--5--0-0--0--0-|



  G5E5I     A5E5                        G5III E5           A5E5
     ~~~~~                                              ~~~~~~~~
  E  Q.        S  S  S  S  S  S  S  S    S  S  S  S  S  E.    Q    Q
|---15b17-----12-------------12-------|---------------------------------|
|----------------12-15----12----15----|---------------------------------|
|----------------------14----------14-|-15-14p12----14------------------|
|-------------------------------------|----------14----14----12---------|
|-------------------------------------|---------------------------12\---|
|-------------------------------------|---------------------------------|

|
| E  E    E E  E     E     E     E       E     E     E     E  E E  E  E
|-3--0----0-0--0-----0-----0-----0----|--3-----0-----0-----0--0-0--0--0-|
|-------------------------------------|---------------------------------|
|-------------------------------------|---------------------------------|
|-------------------------------------|---------------------------------|
|-------------------------------------|---------------------------------|
|-------------------------------------|---------------------------------|

|
| E  E    E E  E     E     E     E       E     E     E     E  E E  E  E
|-------------------------------------|---------------------------------|
|-------------------------------------|---------------------------------|
|-------------------------------------|---------------------------------|
|-------------------------------------|---------------------------------|
|-5---------7-------------------------|--5-----------------7------------|
|-3--0----0-5--0-----0-----0-----0----|--3-----0-----0-----5--0-0--0--0-|



  G5IE5    A5E5              G5IE5    A5VE5
      ~~~        ~~
   E  Q.      E  Q    S  S    S  S  S  S  S  S  S  S  Q    Q
|--------------------------|----12-12-12-12-12-12-12-12\-------*|
|--------------------------|----12-12-12-12-12-12-12-12\-------*|
|--------------------------|-----------------------------------*|
|----12---------12------12-|-12--------------------------------*|
|-14---------14------14----|-----------------------------------*|
|--------------------------|-----------------------------------*|

|
|  E  E  E E  E  E E  E       E     E     E     E     E  E E E
|--3--0--0-0--0--0-0--0----|--3-----0-----0-----0-----0--0-0-0-*|
|--------------------------|-----------------------------------*|
|--------------------------|-----------------------------------*|
|--------------------------|-----------------------------------*|
|--------------------------|-----------------------------------*|
|--------------------------|-----------------------------------*|

|
|  E  E  E E  E  E E  E       E     E     E     E     Q    Q
|--------------------------|-----------------------------------*|
|--------------------------|-----------------------------------*|
|--------------------------|-----------------------------------*|
|--------------------------|-----------------------------------*|
|--5-------7---------------|--5-----------------7-----2--------*|
|--3--0--0-5--0--0-0--0----|--3-----0-----0-----5-----0--------*|


Тональность:

Это должно быть в ТОП-листе! - Топ-лист композиций



Назад
Рекомендуем посмотреть другие песни исполнителя «AC/DC»:

  • Комменты Fb ()
  • Комменты ВК



Добавить в Избранное Браузера
Сохранить здесь Очистить


x

0


+
-

+
-

-

Авторизация





Зарегистрироваться

M

Дата и время

  • 16:32:37
     

Социальные ссылки


Наши приложения

  • Muzbank App Play Market
  • Muzbank Amazon App