MUZBANK



A MOST COMPLETE BANK OF MUSIC INFORMATION

МУЗЫКАЛЬНО-ИНФОРМАЦИОННЫЙ БАНК





AAdams Bryan • Black Pearl 2 (аккорды и текст - chords & lyrics)


337

Print

Видео «Black Pearl 2 (Adams Bryan)»

Видео клипы к песне подбираются автоматически сайтом youtube. Возможны некоторые несоответствия клипов песне.

↑ Спрятать рекламу ↑





Intro Riff
E|---------------------------------|
B|-/5-5-5-5--5-5-------------------|
G|-/6-6-6-6--6-6------4-2----------|
D|------------------------4---2-4~-|
A|--------------------------4------|
E|---------------------------------|
(start Shuffle Lead Plays this)
Riff 2
E|----------------------------------------|
B|---------------------5-5---5-5-5-5----5-|
G|4b--2-----4-2--------6-6---6-6-6-6----6-|
D|------4--------4------------------------|
A|----------------------------------------|
E|----------------------------------------|
F# Shuffle Played By Adams (rythem)
During Verse Chorus and Riff#2

(Palm Mute Shuffle during Verse)
F#
E|--------------------|
B|--------------------|
G|--------------------|
D|--------------------|
A|4-4-4---4-4-4-4/6⁄4-|
E|2-2-4-5-2-2-0-2-----|
(note the slide at the end is not in the song...
I add it for a neat effect when playing live)

During the Verse the Shuffle Goes to E and then B
E
E|------------------|
B|------------------|
G|------------------|
D|------------------|
A|7-7-9-10--7-7---7-|
E|--------------10--|

B
E|-----------------|
B|-----------------|
G|-----------------|
D|-4-4-4---4-4-4-4-|
A|-2-2-4-5-2-2-0-2-|
E|-----------------|
(Note the slide works in the E and B shuffles just the same..
If you slide the E shuffle you can slide down into the B shuffle)

Prechorus
Rythem Guitar C# D A E
(note I like to add a slide on the low E string between D and (open) A chords)
Lead in our band improvises in the scale of F# penatonic during the prechorus

C# D A E
Black coffee Little bit o Cream Sweet brown sugar my midnight dream
Then back into F# shuffle for chorus (do not palm mute chorus)

Bridge
Chords B C# D
B C# D
Yeah shes alright yeah shes ok Well making love all night Really made my day

Ahh the Solo
These are all 1/4 bends | This is a full bend on the 4 and a 1/2 bend on
the 5 & 6's
E|-------------------------------------2-2-2-2-----2-2-----2-2--6b-|
B|-----------------------------4-2-----2-2-2-2- 5b-2-2--6b-2-2-----|
G|2b-----2b--2b--------2b------4-2--4b-----------------------------|
D|----4----------4-4-4-----4---------------------------------------|
A|-----------------------------------------------------------------|
E|-----------------------------------------------------------------|

Thats it, have fun
-B

Тональность:

Это должно быть в ТОП-листе! - Топ-лист композиций



Назад
Рекомендуем посмотреть другие песни исполнителя «Adams Bryan»:

  • Комменты Fb ()
  • Комменты ВК



Добавить в Избранное Браузера
Сохранить здесь Очистить


x

0


+
-

+
-

-

Авторизация





Зарегистрироваться

M

Дата и время

  • 05:53:17
     

Социальные ссылки


Наши приложения

  • Muzbank App Play Market
  • Muzbank Amazon App
  • Muzbank Bitcoin13igjuWJj2R4cHiyZqP7Q3ggVvfXE9j82Q