MUZBANK



A MOST COMPLETE BANK OF MUSIC INFORMATION

МУЗЫКАЛЬНО-ИНФОРМАЦИОННЫЙ БАНК





AAdams Bryan • Youe Still Beautiful To Me (аккорды и текст - chords & lyrics)


405

Print

Видео «Youe Still Beautiful To Me (Adams Bryan)»

Видео клипы к песне подбираются автоматически сайтом youtube. Возможны некоторые несоответствия клипов песне.

↑ Спрятать рекламу ↑





Intro: Em G G/A D

picking...
|-----------------|----------------|3-3-3-3-2-0---0-|2-----2------|
|-----------------|----------------|3-3-3-3-3-3-3-3-|3-----3------|
|-----------------|----0-----------|----------------|-------------|
|-2/4---4⁄2-0---0-|--2-------------|----------------|-------------|
|-------------2---|2---------------|----------------|-------------|
|-----------------|----------------|----------------|-------------|

|----------------|----------------|3-3-3-3-2-0---0-|2------2------|
|----------------|----------------|3-3-3-3-3-3-3-3-|3------3------|
|----------------|----0-----------|----------------|--------------|
|--------0-2/4⁄2-|--2-------------|----------------|--------------|
|------2---------|2---------------|----------------|--------------|
|----------------|----------------|----------------|--------------|

|------------------|
|------------------|
|------------------|
|-2/4-4⁄2h0----2h0-|
|----------2-------|
|------------------|



D Dsus4 D Dsus4 D
Turn out the lights and close the door.
D Dsus4 D Dsus4 D
Put your head on the pillow, let me keep ya warm.
Dsus4 D Dsus4 D
I wanna run my hands across your face.
Dsus4 D Dsus4 D
Yeah, lyin' beside you still the perfect place. (Oh yeah)
Bm F#m/A Em7
We're still goin' strong;
Bm F#m/A Em7
So glad that you came along.
D/A A D/A A7 D
Yeah babe, in every way, you're still beautiful to me.
D/A A
I just have to say
D/A A7 D
You're still beautiful to me.
Em G G/A D Dsus D
'N' it's been a long time baby.



D
Lay back baby, close your eyes.

Let me do everything your heart desires.

When I think of the years makin' love to you;

There still ain't nothing that I'd rather do.
Bm F#m/A Em7
Yeah, there's something I can't deny
Bm F#m/A Em7
You sure know how to move this guy.
D/A A D/A A7 D
Ya babe, in every way, you're still beautiful to me.
D/A A
I just have to say,
D/A A7 D
You're still beautiful to me.
Em G G/A D Dsus4 D
Can't ya see?

Em G G/A D Dsus4 D


Em11 Gmaj9
Still feels good, still runs deep;
D A
When you get close babe, I still get weak,
Em7(add11) Gmaj9
'Cause in these arms is where you belong.
Bm F#m/A Em7
We're still goin' strong;
Bm F#m/A Em7
So glad that you came along
Bm F#m/A Em7
Hey babe, you're still number one.
D/A A
Oh, can't you see
D/A A7 D
You're still beautiful to me
D/A A D/A A7 D
Yeah, you'll always be so beautiful to me.
C G D/A A
Yeah babe,
D
In every way, you're still beautiful to me.

{Em G D Dsus4 D}repeat 6 times and fade.

Тональность:

Это должно быть в ТОП-листе! - Топ-лист композиций



Назад
Рекомендуем посмотреть другие песни исполнителя «Adams Bryan»:

  • Комменты Fb ()
  • Комменты ВК



Добавить в Избранное Браузера
Сохранить здесь Очистить


x

0


+
-

+
-

-

Авторизация





Зарегистрироваться

M

Дата и время

  • 01:16:01
     

Социальные ссылки


Наши приложения

  • Muzbank App Play Market
  • Muzbank Amazon App