MUZBANK



A MOST COMPLETE BANK OF MUSIC INFORMATION

МУЗЫКАЛЬНО-ИНФОРМАЦИОННЫЙ БАНК





AAerosmith • Ain`t That A Bitch (аккорды и текст - chords & lyrics)


419

Print

Видео «Ain`t That A Bitch (Aerosmith)»

Видео клипы к песне подбираются автоматически сайтом youtube. Возможны некоторые несоответствия клипов песне.

↑ Спрятать рекламу ↑





"Up in Smoke..." "You take a hit..."
E---------------------------------------------------------------|
B---------------------------------------------------------------|
G---------8~~~~~~~---------8~~~-11-10~~~~~~~---------8~~~~~~----|
D--3⁄(7)------------3⁄(7)---------------------3⁄(7)-------------|
A---------------------------------------------------------------|
E---------------------------------------------------------------|
"Strung out..."
E--------------------------------------8-------8----------------|
B---------------------------------11p8----11p8----11p8-----11p8-|
G---------8~~~~~-⁄11-10~~~~~~~~~--------------------------------|
D--3⁄(7)--------------------------------------------------------|
A---------------------------------------------------------------|
E---------------------------------------------------------------|

E-8-------8----------------8---------------|
B----11p8----11p8-----11p8----11p8---------|
G------------------------------------------|
D------------------------------------------|
Up in smoke, you lost another lover
Gm C
As you take a hit off your last cigarette

G# Bb
Strung out, burn out
Cm Bb
Yeah, you're down on your luck and you don't give a... huh
G# Bb
Till the best part of you starts to twitch... ain't that a bitch

Cm Fm
Freak out! I'm alone now!
Bb Eb
I feel just like I'm losing my mind
Eb/D Cm G#
'Cause love is like the right dress on the wrong girl
Eb Bb
You never know what you're gonna find
Cm Fm
You think you're high and fine as wine
Bb Eb
Then you wind up like a dog in a ditch
Eb/D Cm G#
'Cause love is like a wrong turn on a cold night
Fm Eb
Yeah, ain't that a bitch!
gliss
E---------------------------------------------------------------|
B---------------------------------------------------------------|
G---------13--12~~~~~~~~~~~----------11--/9~~~~~~~~-/(1)--------|
D---------------------------------------------------------------|
A--12⁄13----------------------10⁄11-----------------------------|
E---------------------------------------------------------------|


I haven't figured out the intermediary chords yet.

Cm Fm
In a daze, in the throes of emotion
Cm Fm
You see God in the devil's eyes

E--------8/10--------------------|
B----------------------10/8------|
G--8⁄10--------------------------|
D----------------8⁄10------------|
A--------------------------------|
E--------------------------------|

G# Bb

Cm Bb
You wouldn't know a kiss if it was on your face
G# Bb
You could tell it to the jury but you ain't got no case

solo- gradual gradual
E---------------------------------------------------------------|
B---------------------------------------------------------------|
G---0--h5⁄7-0-h-7-b----h-9--r--9b--r-p7--⁄(9)--9b-r-----13b-----|
D----------------------------------------------------x----------|
A---------------------------------------------------------------|
E---------------------------------------------------------------|
full P.H.
E---------------------------------------------------------------|
B---------------------------------------------------------------|
G----r-b-r-13b-r/----0--h8b---8r⁄(10)⁄(13)~~~~~-13/(5)-5p3---3--|
D------------------5---------------------------------------5----|
A---------------------------------------------------------------|
E---------------------------------------------------------------|
P.H. |-----v----|
E-----------3----6p3-----3--------------------13~~~-13----------|
B-------------3------3-6--------------------x----------13-------|
G-3b-rp0--------------------0-3b-rp0--------x-------------16p13-|
D--------3---------------------------5⁄(13)---------------------|
A---------------------------------------------------------------|
E---------------------------------------------------------------|
|----v----|
E----------------13-13~~~~~------------------------------------------------|
B----------------------------15-17b-r~~~-15-17-17b-r-15-13-13--13----------|
G----13-16b-r-13--------------------------------------------------13-------|
D-15-----------------------------------------------------------------13h15-|
A--------------------------------------------------------------------------|
E--------------------------------------------------------------------------|

Тональность:

Это должно быть в ТОП-листе! - Топ-лист композиций



Назад
Рекомендуем посмотреть другие песни исполнителя «Aerosmith»:

  • Комменты Fb ()
  • Комменты ВК



Добавить в Избранное Браузера
Сохранить здесь Очистить


x

0


+
-

+
-

-

Авторизация





Зарегистрироваться

M

Дата и время

  • 01:13:58
     

Социальные ссылки


Наши приложения

  • Muzbank App Play Market
  • Muzbank Amazon App
  • Muzbank Bitcoin13igjuWJj2R4cHiyZqP7Q3ggVvfXE9j82Q