MUZBANK



A MOST COMPLETE BANK OF MUSIC INFORMATION

МУЗЫКАЛЬНО-ИНФОРМАЦИОННЫЙ БАНК





AAerosmith • Down (аккорды и текст - chords & lyrics)


318

Print

Видео «Down (Aerosmith)»

Видео клипы к песне подбираются автоматически сайтом youtube. Возможны некоторые несоответствия клипов песне.

↑ Спрятать рекламу ↑





E|--------------------|----------------------|
B|--------------------|----------------------|
G|--------------------|----------------------|
D|-------2--------2---|-------2--------2---2-|
A|-0-1-2----0-1-2-----|-0-1-2----0-1-2-------|
E|------------------0-|------------------3---|

E|--------------------|----------------------|
B|--------------------|----------------------|
G|--------------------|--------------------2-|
D|-------2--------2---|-------2--------2---2-|
A|-0-1-2----0-1-2-----|-0-1-2----0-1-2-----0-|
E|------------------0-|----------------------|

Тональность:

Это должно быть в ТОП-листе! - Топ-лист композиций



Назад
Рекомендуем посмотреть другие песни исполнителя «Aerosmith»:

  • Комменты Fb ()
  • Комменты ВК



Добавить в Избранное Браузера
Сохранить здесь Очистить


x

0


+
-

+
-

-

Авторизация





Зарегистрироваться

M

Дата и время

  • 22:04:33
     

Социальные ссылки


Наши приложения

  • Muzbank App Play Market
  • Muzbank Amazon App