MUZBANK


МУЗЫКАЛЬНО-ИНФОРМАЦИОННЫЙ БАНК





AAerosmith • Dude Look Like A Lady (аккорды и текст - chords & lyrics)


405

Print

Видео «Dude Look Like A Lady (Aerosmith)»

Видео клипы к песне подбираются автоматически сайтом youtube. Возможны некоторые несоответствия клипов песне.

↑ Спрятать рекламу ↑





Intro:

   A5
E|--------------------------------|
B|--------------------------------|
G|-9--9----9--9----9--9----9--9---|
D|-7--7----7--7----7--7----7--7---|
A|--------------------------------|
E|--------------------------------|

    A5       G5   A5  D5     G5 D5
E|--------------------------------|Repeat this Riff
B|-10-10-10--8-8--10--7-7-7-7-8-7-|4X, until the horns
G|--9--9--9--7-7---9--7-7-7-7-7-7-|start, then repeat
D|--7--7--7--5-5---7--7-7-7-7-7-7-|this 4 more times.
A|--------------------------------|
E|--------------------------------|
  Dude Look like a lady

Once the lyrics start play the same riff over and over again.
                                                          Also
repeat it with the chorus.  After chorus and verses play this.

    A5       G5         A5     F5
E|--------------------------------|
B|-10-10-10--8--8---8--10------6--|
G|--9--9--9--7--7---7---9------5--|
D|--7--7--7--5--5---5---7------3--|
A|--------------------------------|
E|--------------------------------|
   Baby let me follow you     down.  Let me take a peak dear.

Right before the solo it goes like this...

D5       C5         D5  E5                     G5
Baby let me follow you down..  Do me, do me, do me, sue me.

Тональность:

Это должно быть в ТОП-листе! - Топ-лист композиций



Назад
Рекомендуем посмотреть другие песни исполнителя «Aerosmith»:

  • Комменты Fb ()
  • Комменты ВК



Добавить в Избранное Браузера
Сохранить здесь Очистить


x

0


+
-

+
-

-

Авторизация





Зарегистрироваться

M

Дата и время

  • 02:41:33
     

Социальные ссылки


Наши приложения

  • Muzbank App Play Market
  • Muzbank Amazon App