MUZBANK



A MOST COMPLETE BANK OF MUSIC INFORMATION

МУЗЫКАЛЬНО-ИНФОРМАЦИОННЫЙ БАНК





AAerosmith • I Dont Want To Miss A Thing (аккорды и текст - chords & lyrics)


535

Print

Видео «I Dont Want To Miss A Thing (Aerosmith)»

Видео клипы к песне подбираются автоматически сайтом youtube. Возможны некоторые несоответствия клипов песне.

↑ Спрятать рекламу ↑






E B A C#m F# C# D#m | G D C Em A E F#m
E--0--2--0---4---2---4----6------|-3--5--3--7---5--7---9------------
B--0--4--2---5---2---6----7------|-3--7--5--8---5--9---10-----------
G--1--4--2---6---3---6----8------|-4--7--5--9---6--9---11-----------
D--2--4--2---6---4---6----8------|-5--7--5--9---7--9---11-----------
A--2--2--0---4---4---4----6------|-5--5--3--7---7--7---9------------
E--0--2--0---4---2---4----6------|-3--5--3--7---5--7---9------------


(from the Armageddon Soundtrack)

Intro:(strings)

e|--------------|
h|--------------|
g|--------------|
D|--------2---|
A|--2-4------|
E|-------------|

e|-----------------------------------|
h|-----------------------------------|
g|-----------------------------------|
D|-------2------4-2-----------2--| (repeat)
A|--2-4---------------5-4-5-----|
E|----------------------------------|

e|-------------|
h|-------------|
g|-------------|
D|-------------|
A|--5-4-2-0-|
E|-------------|

D A Bm
1. I could stay awake just to hear you breathing
G D
Watch you smile while you are sleeping
Em7
While you're far away dreaming
D A Bm
I could spend my life in this sweet surrender
G D
I could stay lost in this moment forever
C#m Bm D A
Every moment spent with you is a moment I treasure

D A
Chorus: Don't want to close my eyes
Em
I don't want to fall asleep
G
Cause I'd miss you baby
D A D
And I don't want to miss a thing
A
Cause even when I dream of you
Em
The sweetest dream will never do
G
I'd still miss you baby
D A
And I don't want to miss a thing





D A Bm
2. Lying close to you feeling your heart beating
G D
And I'm wondering what you're dreaming
Em7
Wondering if it's me you're seeing
D
Then I kiss your eyes
A Bm
And thank God we're together

A Bm7 D A
I just want to stay with you in this moment forever
Forever and ever

Chorus

Тональность:

Это должно быть в ТОП-листе! - Топ-лист композиций



Назад
Рекомендуем посмотреть другие песни исполнителя «Aerosmith»:

  • Комменты Fb ()
  • Комменты ВК



Добавить в Избранное Браузера
Сохранить здесь Очистить


x

0


+
-

+
-

-

Авторизация





Зарегистрироваться

M

Дата и время

  • 19:23:21
     

Социальные ссылки


Наши приложения

  • Muzbank App Play Market
  • Muzbank Amazon App