MUZBANK



A MOST COMPLETE BANK OF MUSIC INFORMATION

МУЗЫКАЛЬНО-ИНФОРМАЦИОННЫЙ БАНК





AAerosmith • Jaded (аккорды и текст - chords & lyrics)


389

Print

Видео «Jaded (Aerosmith)»

Видео клипы к песне подбираются автоматически сайтом youtube. Возможны некоторые несоответствия клипов песне.

↑ Спрятать рекламу ↑





Intro:
Amaj7 @A Amaj7 @A Amaj7 @A Dmaj7 E
----------------------------------------------------------|----------------
---------------------------------------------2-2-2-0-0-0--|----------------
-1-1-1-1-1----1-1h2p1---1-----1-1h2p1---1-----------------|----------------
-----------4----------4---4-----------4---4---------------|----------------
----------------------------------------------------------|----------------
----------------------------------------------------------|----------------
repeat and in the end ->
Dmaj7 E
--------------------
-2-2-2-0-0---0------
-----------------2--
--------------------
--------------------
--------------------
another guitar:

-----------------5--
--------------------
--------------------
-------------0-2----
---------0-4--------
--------------------


Amaj7
Hey j-j-jaded,

Do you've got your mama's style
Dmaj7 Amaj7
But your yesterday's child to me
So jaded
You think that's where it's at
Dmaj7 Bm
But is that where it's supposed to be
Dmaj7 Bm
You're gettin' it all over me X-rated

A F#m C#m
My my baby blue
E
Yeah I've been thinkin' about you
A F#m C#m
My my baby blue
E D
Yeah you're so jaded
D(break)
And I'm the one that jaded you

Bridge: (Play like you did in intro without ending..)

Hey j-j-jaded
In all it's misery
It will always be what I love and hated
And maybe take a ride to the other side
We're thinkin' of
We'll slip into the velvet glove
And be jaded

My my baby blue
Yeah I'm thinkin about you
My my baby blue
Yeah I'm so jaded
And baby I'm afraid of you

E D
Your thinking's so complicated
E Bm
I've had it all up to here
E D
But it's so overrated
C
Love and hate it
B
Wouldn't trade it
Bb
Love me jaded

||

E D E Bm E D
---4-----------2--------|---4-----------2------5-|---4-----------2------------
------7---5-------5---3-|------7---5-------5-----|------7---5-------5---3-----
-4--4---4----2--2---2---|-4--4---4----4--2---2---|-4--4---4----2--2---2-------
------------------------|------------------------|----------------------------
------------------------|------------------------|----------------------------
------------------------|------------------------|----------------------------

C B Bb
---------------------------------------------
-------5br--------4br--------3br---3br--3br--
-----5----------4----------3-----------------
---5----------4----------3-------------------
-3----------2----------1---------------------
---------------------------------------------

Solo:

Amaj7 Dmaj7 E Amaj7
--------------------2-4-5--9v-p7----7-----------------
--5-2-----------2-5--------------10---10-9-10v~~~~~~~...
------2-------2---------------------------------------
--------4-2-4-----------------------------------------
------------------------------------------------------
------------------------------------------------------

Amaj7
Hey j-j-jaded
There ain't no baby please
Dmaj7 Bm
When I'm shooting the breeze with her
Dmaj7 Bm
When everything you see is a blur
Dmaj7
And ectasy's what you plead f'r

My my baby blue
And I've been talkin' 'bout you
My my baby blue
Yeah I've been thinkin' about you

My my baby blue

E D
Yeah you're so jaded
F#m7
Baby blue
D
Jaded
F#m7
Baby blue
D
You're so jaded
D(break)
'Cause I'm the one that jaded you

End:

Amaj7 @A Amaj7 @A Amaj7 @A A5
------------------------------------------------|
------------------------------------------------|
-1-1-1-1-1----1-1h2p1---1-----1-1h2p1---1-------|
-----------4----------4---4-----------4---4--2--|
------------------------------------------------|
------------------------------------------------|

Тональность:

Это должно быть в ТОП-листе! - Топ-лист композиций



Назад
Рекомендуем посмотреть другие песни исполнителя «Aerosmith»:

  • Комменты Fb ()
  • Комменты ВК



Добавить в Избранное Браузера
Сохранить здесь Очистить


x

0


+
-

+
-

-

Авторизация





Зарегистрироваться

M

Дата и время

  • 22:12:58
     

Социальные ссылки


Наши приложения

  • Muzbank App Play Market
  • Muzbank Amazon App
  • Muzbank Bitcoin13igjuWJj2R4cHiyZqP7Q3ggVvfXE9j82Q