MUZBANK


МУЗЫКАЛЬНО-ИНФОРМАЦИОННЫЙ БАНК





AAerosmith • Kings And Queens (аккорды и текст - chords & lyrics)


465

Print

Видео «Kings And Queens (Aerosmith)»

Видео клипы к песне подбираются автоматически сайтом youtube. Возможны некоторые несоответствия клипов песне.

↑ Спрятать рекламу ↑






Bass guitar
Fig. 1
G|-------------------------------------------------------------|
D|-------------------------------------------------------------|
A|-------------------4--5-5-5-5-5-5-5-5----------------------5-|
E|-2-2-2-2-2-2-2-2-2----------------------2--3-3-3-3-3-3-3-3---|

G|------------------|
D|------------------|
A|--4-4-4-4-4-4-4-4-|
E|------------------|

G|-------------------------------------------------------------|
D|-3-3-3-3-3-3-3-3---------------------------------------------|
A|---------------------------------4--5-5-5-5-5-5-5-5----------|
E|-----------------2-2-2-2-2-2-2-2--------------------2--3-3-3-|

G|-----------|
D|-----------|
A|-----------|
E|-3-3-3-3-3-|

G|-------------------------------------------------------------|
D|-------------------------------------------------------------|
A|-------------------------------------------------------------|
E|-5-5-5-5-5-5-5-5-5-7-7-7-7-7-7-7-7-7-7-7-7-7-7-7-7-7-7-9-9-9-|

Fig. 2

G|-------------------|
D|-------------------|
A|-------------------|
E|-9-9-9-9-9-9-9-9-9-|

G|-------------------------------------------------------------|
D|-------------------------------------------------------------|
A|-------------------------7--5--5--5--5--5--5--5--5--7--------|
E|-2--2--2--2--2--2--2--2--------------------------------2--2--|

G|------------------|
D|------------------|
A|------------------|
E|-2--2--2--2--2--2-|

G|-------------------------------------------------------------|
D|-------------------------------------------------------------|
A|-7--5--5--5--5--5--5--5--5--7-------------------------7-5--5-|
E|-------------------------------2--2--2--2--2--2--2--2--------|

G|------------------|
D|------------------|
A|-5--5--5--5--5--5-|
E|------------------|

                        x2                 fill 1
G|-------------------------||--------------------|
D|-------------------------||--------------------|
A|-4-4-4-4-4-4-4-4-4-4-4-4-||--4-----------------|
E|-------------------------||-------7-----5----2-|

|-----------------------|
|    Play Figure One    |
|                       |
|-----------------------|

G|-------------------------------------------------------------|
D|*------------------------------------------------------------|
A|*------------------------------------------------------------|
E|-2-2-2-2-2-2-2-2-2-2-2-2-2-2-2-2-7-7-7-7-7-7-7-7-7-7-7-7-7-7-|

G|---------------------|
D|---------------------|
A|---------------------|
E|-7-7-4-4-4-4-4-4-4-4-|

G|-------------------------------------------------|   Repeat 2x
D|-------------------------------------------------|
A|-------------------------------------------------|
E|-5-5-5-5-5-5-5-5-2-2-2-2-2-2-2-2-2-2-2-2-2-2-2-2-|
                        played only first time

G|-----------|
D|play fill 1|
A|-----------|
E|-----------|

  Fig. 3
G|--11----13----11------------|
D|-----12----------12-0----14-|  Play it 2x
A|----------------------12----|
E|----------------------------|

 	Fig. 4
G|---------------------------|----------------------|
D|-12------10-9-8-0----------| play fig.3 then fig.4| play fig.3
A|----12-0----------12-11-10-|      three times     |
E|---------------------------|----------------------|

G|----------------------------------------------------------|
D|--12-------------------------------10--9--8--0------------|
A|-----12-0-9-9-9-9-9-9-9-9-9-9-9-9--------------12--11--10-|
E|----------------------------------------------------------|

G|-------------||--------------|
D| play fig. 2 ||--------------|
A|             ||--------------|
E|-------------||--5----7----2-|

Тональность:

Это должно быть в ТОП-листе! - Топ-лист композиций



Назад
Рекомендуем посмотреть другие песни исполнителя «Aerosmith»:

  • Комменты Fb ()
  • Комменты ВК



Добавить в Избранное Браузера
Сохранить здесь Очистить


x

0


+
-

+
-

-

Авторизация





Зарегистрироваться

M

Дата и время

  • 21:24:51
     

Социальные ссылки


Наши приложения

  • Muzbank App Play Market
  • Muzbank Amazon App