MUZBANK


МУЗЫКАЛЬНО-ИНФОРМАЦИОННЫЙ БАНК





AAerosmith • Lord Of The Thighs (аккорды и текст - chords & lyrics)


362

Print

Видео «Lord Of The Thighs (Aerosmith)»

Видео клипы к песне подбираются автоматически сайтом youtube. Возможны некоторые несоответствия клипов песне.

↑ Спрятать рекламу ↑





guitar 1
E|---|
B|---|
G|---|
D|---|
A|-3-| ПОВТОРИТЬ X РАЗ
E|---|

guitar 2
E|------------------------------------------------|
B|-6-----4----------------------------------------|
G|-5-----3-----5-5-5-5-5-5-5-5----5-5-5-5-5-5-5-5-|
D|-3-----1-----5-5-5-5-5-5-5-5----5-5-5-5-5-5-5-5-|
A|-------------3-3-3-3-3-3-3-3----3-3-3-3-3-3-3-3-|
E|------------------------------------------------|

E|------------------------------------------------|
B|-6-----9-----8-8-8-8-8-8-8-8----8-8-8-8-8-8-8-8-|
G|-5-----8-----7-7-7-7-7-7-7-7----7-7-7-7-7-7-7-7-|
D|-3-----6-----5-5-5-5-5-5-5-5----5-5-5-5-5-5-5-5-|
A|------------------------------------------------|
E|------------------------------------------------|

piano:
E|-------------------------------------------------------------|
B|-------------------------------------------------------------|
G|-------------------------------------------------------------|
D|-------------------------------------------------------------|
A|-3-3----1-1-----3-3-----1-1-----3-3-----1-1-----3-3------1-1-|
E|-------------------------------------------------------------|

           down to who knows       who   just to      socialize
E|-------------------------------------------------------------|
B|-------------------------------------------------------------|
G|-------------------------------------------------------------|
D|(5)-----------(3)--------------------------------------------|
A|(3)3-3-3-3-3-3(1)1-1-1-1-1-1-1(6)-------------(5)------------|
E|------------------------------(4)4-4-4-4-4-4-4(3)3-3-3-3-3-3-|

E|--------------------------------
B|--------------------------------
G|--------------------------------  repeat twice (2nd time
D|-3----3--1--3----3--1--3---1--3-  play only power chords - as
A|-3----3--1--3----3--1--3---1--3-  indicated in parentheses)
E|-1----1----------1--------------

  you got the  ways  to make a man
  honey you got to understand
E|------------------------------------|
B|------------------------------------|
G|------------------------------------|
D|----------------------------------5-|
A|-6---------------5--5-------------3-|
E|-4---------------3--3---------------|

 I`m your man child lord of the thighs
E|------------------------------------|
B|------------------------------------|
G|------------------------------------|
D|----------------------------------5-|
A|-----------6------5-5-------------3-|
E|-----------4------3-3---------------|

This first part tabbed by an anonymous tabber(possibly Denis
Jacob or Mike Heasley,from whose archive this file was taken)

Solo parts:

1st solo-
E|-8p6---6---6------8--------8-8p6---6---------|
B|-----8---8---8-8b---8b-r-8-------8---6-8-6b3-|
G|---------------------------------------------|
D|---------------------------------------------|
A|---------------------------------------------|
E|---------------------------------------------|

E|-------------------------------------------------------------|
B|-----------------------------------------------------6p5-----|
G|------3--5-5b----------------3-----3-5b-r--5b-rp3------------|
D|---5-----------------3h5--5-----5-----------------p3---------|
A|-----------------3h5-----------------------------------------|
E|-------------------------------------------------------------|

After that there are a bunch of slide licks that my lack of
confidence with the slide prohibits me from tabbing.
If you know this part, please send it to me and I`ll post it.

2nd solo(delay or heavy reverb)-
E|--------8-----------------8--------------8-----------------8-|
B|------8---11b-11r-------8--------------8----11b-11r------8---|
G|-8h10--------------8h10-----------8h10--------------8h10-----|
D|------------------------------10-----------------------------|
A|-------------------------------------------------------------|
E|-------------------------------------------------------------|

E|-----------8-10b---------8--------------8--------------------|
B|---------8-------------8----11--------8-----11---11--11p10p8-|
G|----8h10----------8h10-----------8h10------------------------|
D|-10----------------------------------------------------------|
A|-------------------------------------------------------------|
E|-------------------------------------------------------------|

E|-----------------11-11b-r-11b-rp8----11p10p8----11b-11r-8----|
B|-11p10p8-11p10p8------------------11---------11-----------11-|
G|-------------------------------------------------------------|
D|-------------------------------------------------------------|
A|-------------------------------------------------------------|
E|-------------------------------------------------------------|

E|-8--12b--r12-15-18p15-18b---------------------------------|
B|----------------------------------------------------------|
G|--------------------------17-19p17-19b--------------17----|
D|---------------------------------------17-19p17-19b----19r|
A|----------------------------------------------------------|
E|----------------------------------------------------------|

I don`t know the lead slide part at the end,
but the rhythm goes something like this:
E|---------------------------------------------------|
B|---------------------------------------------------|
G|---------------------------------------------------|
D|---------------------------------------------------|
A|-1--3--1-3-1-3-1-3--1-1-1-1-3--1-3-1-3-1-3-1-1-1-1-|

Тональность:

Это должно быть в ТОП-листе! - Топ-лист композиций



Назад
Рекомендуем посмотреть другие песни исполнителя «Aerosmith»:

  • Комменты Fb ()
  • Комменты ВК



Добавить в Избранное Браузера
Сохранить здесь Очистить


x

0


+
-

+
-

-

Авторизация





Зарегистрироваться

M

Дата и время

  • 02:36:46
     

Социальные ссылки


Наши приложения

  • Muzbank App Play Market
  • Muzbank Amazon App