MUZBANK



A MOST COMPLETE BANK OF MUSIC INFORMATION

МУЗЫКАЛЬНО-ИНФОРМАЦИОННЫЙ БАНК





AAerosmith • Seasons Of Wither 2 (аккорды и текст - chords & lyrics)


418

Print

Видео «Seasons Of Wither 2 (Aerosmith)»

Видео клипы к песне подбираются автоматически сайтом youtube. Возможны некоторые несоответствия клипов песне.

↑ Спрятать рекламу ↑





Intro about 8x (he fades in its hard to tell)

E|----------------------------------------------------------------------------|
B|----------------------------------------------------------------------------|
G|-------------0---------0--------------------------0--------------0----------|
D|-------0-----------0-------------0-----------2--------------3--------3------|
A|---------------1--------------------------0--------------1----------------1-|
E|-3--------------------------3-----------------------------------------------|

Chorus thing (each letter is one strum of the church)

D D D D C D D D D C D D D D C D D D D C F

Verse 5x (on fifth time play the G a couple extra times)

Em F D/F# G
E|-----------------------------------------------------------------------------|
B|-----------------------------------------------------------------------------|
G|-----2-----0----0------2------0----0-------2-------0-----0---------0----0--0-|
D|---0-----0--0-------0------0----0------0-------0-----0---------0-------0---0-|
A|-----------------------------------------------------------------------------|
E|-0-----0----------1------1----------2-------2---------------3-------3--------|

Bridge Bit 2x

C C/B Em F
E|-----------------------------------------------------------------------------|
B|-----------------------------------------------------------------------------|
G|---2----0-----0-----2----0------0---------2------0-------0------2-----0----0-|
D|--0----0---0------0----0----0----------0------0------0-------0-----0-----0---|
A|-3----3---------2-----2------------------------------------------------------|
E|------------------------------------0------0---------------1-----1---1-------|

E|----------------------------------------------------------|
B|----------------------------------------------------------|
G|---------0------------0-----------0---------0-----------0-|
D|-----0-----------0-----------0---------0-----------0------|
A|----------------------------------------------------------|
E|---3---------3-----------3--------3-----------3-----------|

Then

G A Bb C

Then to the chorus

D D D D C D D D D C D D D D C D D D D C D D D D C D D D D C
Verse

Bridge with solo

Chorus with solo

Intro with solo

End on D

Тональность:

Это должно быть в ТОП-листе! - Топ-лист композиций



Назад
Рекомендуем посмотреть другие песни исполнителя «Aerosmith»:

  • Комменты Fb ()
  • Комменты ВК



Добавить в Избранное Браузера
Сохранить здесь Очистить


x

0


+
-

+
-

-

Авторизация





Зарегистрироваться

M

Дата и время

  • 20:29:15
     

Социальные ссылки


Наши приложения

  • Muzbank App Play Market
  • Muzbank Amazon App