MUZBANK


МУЗЫКАЛЬНО-ИНФОРМАЦИОННЫЙ БАНК





AAerosmith • Train Kept A Rollin 2 (аккорды и текст - chords & lyrics)


367

Print

Видео «Train Kept A Rollin 2 (Aerosmith)»

Видео клипы к песне подбираются автоматически сайтом youtube. Возможны некоторые несоответствия клипов песне.

↑ Спрятать рекламу ↑





Train Whistle Intro Solo Starts (Riff 1 starts)
E|------------------------||--------------------------------------|
B|-----10b~~----10p9p8----||--15b16~~p15~----12-15-12-11----------|
G|---------------------9--||-----------------------------14-12----|
D|------------------------||-----------------------------------14-|
A|-----Played twice-------||--------------------------------------|
E|------------------------||--------------------------------------|

E|---------15-17-15-19-17-15-17--17p15-17p15--------15-17-15----15-------------|
B|---15/17-----------------------------------15-15~----------17----17-15-17-15-|
G|-----------------------------------------------------------------------------|
D|-----------------------------------------------------------------------------|
A|-----------------------------------------------------------------------------|
E|-----------------------------------------------------------------------------|

E|-----------------------------------|
B|-----15----------------------------|
G|--16----16-14-16-14----14----------|
D|--------------------17----17-14-14-|
A|-----------------------------------|
E|-----------------------------------|

E|-----------------------------------------------------|
B|-------------------------------15--------------------|
G|--------12-17-15-12-15b17---16----16-15-14--12-14-12-|
D|--12/14----------------------------------------------|
A|-----------------------------------------------------|
E|-----------------------------------------------------|

E|----------------------------------------------|
B|----------------------------------------------|
G|----------------------------------------------|
D|--14p12h14p12---fades out-- End of Intro Solo-|
A|----------------------------------------------|
E|----------------------------------------------|

RIFF 1; as it is on the original version (played almost throughout the song)

E|------------------|-------|------------------|----------------|
B|------------------|-------|------------------|----------------|
G|------------------|-Play--|------------------|----------------|
D|-5x--5-5-5-5-5---5|-Twice-|-7x--7-7-7-7-7--7⁄|-5x--5-5-5-5-5⁄-|
A|-5x--5-5-5-5-5---5|-------|-7x--7-7-7-7-7--7⁄|-5x--5-5-5-5-5⁄-|
E|-3x--0-3-3-0-3---0|-------|-5x--0-5-5-0-5--0⁄|-3x--0-3-3-0-3⁄-|

E|----------------|-------------|
B|----------------|-------------|
G|----------------|-Repeat-from-|
D|-7~---7-9-7-5-4-|----Start----|
A|-7~---7-9-7-5-4-|-------------|
E|-5~---5-7-5-3-2-|-------------|

Interlude 1: 6 Times
E|-------|-------------------------------------------|
B|-------|-------------------------------------------|
G|-------|-------------------------------------------|
D|-2-----|----------5-------------2-2------------2-2-|
A|-2-----|-----5-----^7^5---------2-2------------2-2-|
E|-0~~~--|-5^7--^7-------^7^5⁄3~--0-0--0--2--3~~-0-0-|
. . . .

E A B Chord Progression
E|-----5--7-------------------------------|---------|
B|-----5--7-------------------------------|-Back-to-|
G|-----6--8-------------------------------|-Riff-1--|
D|-----7--9-------------------------------|--Over---|
A|-----7--9-------------------------------|--Solo---|
E|--0--5⁄-7--7-8-9-10~~-10-11-12-13-15~~~-|---------|

Solo at 00:52 (about 70% correct!)

E|---------------------------------------------------|-------------------------|
B|--15b17--14b15--13b14--12--------------------------|-12----------------------|
G|-----------------------------14--12----------------|----14-12-14-12----12-14-|
D|------------------------------------14p12h14p12h14-|----------------14-------|
A|---------------------------------------------------|-------------------------|
E|---------------------------------------------------|-------------------------|

E|--------------------17~-15-12-15-|
B|-12---12-17-15-17~---------------|
G|---------------------------------|
D|---------------------------------|
A|---------------------------------|
E|---------------------------------|

Тональность:

Это должно быть в ТОП-листе! - Топ-лист композиций



Назад
Рекомендуем посмотреть другие песни исполнителя «Aerosmith»:

  • Комменты Fb ()
  • Комменты ВК



Добавить в Избранное Браузера
Сохранить здесь Очистить


x

0


+
-

+
-

-

Авторизация





Зарегистрироваться

M

Дата и время

  • 18:22:07
     

Социальные ссылки


Наши приложения

  • Muzbank App Play Market
  • Muzbank Amazon App