MUZBANK


МУЗЫКАЛЬНО-ИНФОРМАЦИОННЫЙ БАНК





AAgainst Me • Pints of Guinness Make You Stronger! (аккорды и текст - chords & lyrics)


472

Print

Видео «Pints of Guinness Make You Stronger! (Against Me)»

Видео клипы к песне подбираются автоматически сайтом youtube. Возможны некоторые несоответствия клипов песне.

↑ Спрятать рекламу ↑





 

Album Reinventing Axl Rose!
bass part

Intro:

G|---------------------------------------------------|
D|---------------------------------------------------|
A|--0-2-3-----3---3-2-0-----0---0-2-------5------3-2-|
E|---------3-------------0------------3------3-------|


Verse: 

Play this line twice!
also when you play the open notes 
strum the string then mute it
other wise it sounds a BIG mess!

G|--Am--------------C---------------Am--------------G-----------------|
D|--------------------------------------------------------------------|
A|--0---0---0---0-2-3---3---3---3-2-0---0---0---0-2---5---5---5--3-2--|
E|----0---0---0-------3---3---3-------0---0---0-----3---3---3---------|


Chorus:

G|-F---------------|-----------------|-G---------------|-G---------------|
D|-----------------|-----------------|-----------------|-----------------|
A|..just like james ill be drinkin...|-----------------|-----------------|
E|-1---------------|-----------------|-3-3-3-3-3-3-3-3-|-3-3-3-3-3-3-3-3-|

**************************************************************************
G|-F---------------|-Am--------------|-G---------------|-G---------------|
D|-----------------|-----------------|-----------------|-----------------|
A|-----------------|-0-0-0-0-0-0-0-0-|-----------------|-----------------|
E|-1-1-1-1-1-1-1-1-|-----------------|-3-3-3-3-3-3-3-3-|-3-3-3-3-3-3-3-3-|
**************************************************************************

Repeat the part in *** *** until end of chorus!
End Chorus on Am!


2nd Verse:

G|--Am--------------C---------------G---------------F----------------|
D|-------------------------------------------------------------------|
A|--0---0---0---0-2-3---3---3---3-2---5---5---5---5---3---3---3---3--|
E|----0---0---0-------3---3---3-----3---3---3---3---1---1---1---1----|

**************************************************
G|--F--------|--Am-------|--G--------|--F--------|
D|-----------|-----------|-----------|-----------|
A|----3---3--|--0---0----|----5---5--|----3---3--|
E|--1---1----|----0---0--|--3---5----|--1---1----|
**************************************************

Repeat the part in *** *** until next section starts!


Next Section:
"If I would have known just how things had ended up"

G|--F------------|--Am-----------|--G-----------|--F------------|
D|---------------|---------------|--------------|---------------|
A|---------------|--0~-----0-2-0-|--------------|---------------|
E|--1~-----------|---------------|--3~----------|--1~-----------|


Chorus:

G|-F---------------|-Am--------------|-G---------------|-G---------------|
D|-----------------|-----------------|-----------------|-----------------|
A|-----------------|-0-0-0-0-0-0-0-0-|-----------------|-----------------|
E|-1-1-1-1-1-1-1-1-|-----------------|-3-3-3-3-3-3-3-3-|-3-3-3-3-3-3-3-3-|

Repeat this part until the outro, which goes like this:


Outro:

G|--F------------|--Am-----------|--G-----------|
D|---------------|---------------|--------------|
A|---------------|--0~-----0-2-0-|--------------|
E|--1~-------1-3-|---------------|--3~----------|



 

Тональность:

Это должно быть в ТОП-листе! - Топ-лист композиций



Назад
Рекомендуем посмотреть другие песни исполнителя «Against Me»:

  • Комменты Fb ()
  • Комменты ВК



Добавить в Избранное Браузера
Сохранить здесь Очистить


x

0


+
-

+
-

-

Авторизация





Зарегистрироваться

M

Дата и время

  • 19:23:46
     

Социальные ссылки


Наши приложения

  • Muzbank App Play Market
  • Muzbank Amazon App