MUZBANK


МУЗЫКАЛЬНО-ИНФОРМАЦИОННЫЙ БАНК





ААгата Кристи • Черная луна (аккорды и текст - chords & lyrics)


1943

Print

Видео «Черная луна (Агата Кристи)»

Видео клипы к песне подбираются автоматически сайтом youtube. Возможны некоторые несоответствия клипов песне.

↑ Спрятать рекламу ↑







  Gm                                 Cm               D
e|-----2-3----2-3-|-----2-3----2-3-|-----2-3----2-3-|-6----5-------------|
H|---3------3-----|---3------3-----|---4------4-----|-----------8----7---|
G|-0--------------|-0--------------|-0--------------|---7----7-----7---7-|
D|----------------|----------------|----------------|--------------------|
A|----------------|----------------|----------------|--------------------|
E|----------------|----------------|----------------|--------------------|


Gm
Задумывая черные дела
    D#
На небе ухмыляется луна.
    D                      Gm
А звезды, будто миллиарды стрел.
   Gm
Ловя на мушку силуэты снов,
   D#
Смеется и злорадствует любовь
   D                       Gm
И мы с тобой попали на прицел.

    Gm
    Я же своей рукою сердце твое прикрою -
     Cm                  D
    Можешь лететь и не бояться больше ничего.
     Gm
    Сердце твое двулико, сверху оно набито
     Cm                     D
    Мягкой травой, а снизу каменное, каменное дно.

Смотри же и глазам своим не верь -
На небе затаился черный зверь -
В глазах его я чувствую беду.
Не знал и не узнаю никогда
Зачем ему нужна твоя душа -
Она гореть не сможет и в аду.



Проигрыш:
Play 3 Times

e|-----2-3---2-3-|----2-3---2-3-|----2-3---2-3-|----2-3---2-3--|
B|---3-----3-----|--3-----3-----|--4-----4-----|--4-----4------|
G|-0-------------|0-------------|0-------------|0--------------|
D|---------------|--------------|--------------|---------------|
A|---------------|--------------|--------------|---------------|
E|---------------|--------------|--------------|---------------|

 play once

e|-----2-3---2-3-|----2-3---2-3-|----2-3---2-3-|7-7-5-5-3-3-1--|
B|---3-----3-----|--3-----3-----|--4-----4-----|8-8-7-7-5-5-3--|
G|-0-------------|0-------------|0-------------|---------------|
D|---------------|--------------|--------------|---------------|
A|---------------|--------------|--------------|---------------|
E|---------------|--------------|--------------|---------------|


Версия :
 Gm Eb D Gm

Припев:

 Gm Gm Cm D
 
e|-----2-3---------|  e|-----2-3---------|  e|-7-7-5-5-3-3-1---|
B|---3-------------|  B|---4-------------|  B|-8-8-7-7-5-5-3---|
G|-0---------------|  G|-0---------------|  G|-----------------|
D|-----------------|  D|-----------------|  D|-----------------|
A|-----------------|  A|-----------------|  A|-----------------|
E|-----------------|  E|-----------------|  E|-----------------|



Тональность:

Это должно быть в ТОП-листе! - Топ-лист композиций



Назад
Рекомендуем посмотреть другие песни исполнителя «Агата Кристи»:

  • Комменты Fb ()
  • Комменты ВК



Добавить в Избранное Браузера
Сохранить здесь Очистить


x

0


+
-

+
-

-

Авторизация





Зарегистрироваться

M

Дата и время

  • 05:41:09
     

Социальные ссылки


Наши приложения

  • Muzbank App Play Market
  • Muzbank Amazon App