MUZBANK


МУЗЫКАЛЬНО-ИНФОРМАЦИОННЫЙ БАНК





ААгата Кристи • На дне (аккорды и текст - chords & lyrics)


1284

Print

Видео «На дне (Агата Кристи)»

Видео клипы к песне подбираются автоматически сайтом youtube. Возможны некоторые несоответствия клипов песне.

↑ Спрятать рекламу ↑






E|-----0---------0-----------0-----------0-----------0-------0-|
B|---6---6-----6----6-----6-----6-----6------6-----6---6---6---|
G|-7-------7-7---------7-----------6------------5--------6-----|
D|-------------------------------------------------------------|
A|-------------------------------------------------------------|
E|-------------------------------------------------------------|
Когда бы нас не встретила любовь...

E|---------0-----------0-----------0-------5-------5-------0---|
B|-6----6-----6-----6-----6-----6----6---6---6---6---6---6---6-|
G|---7-----------6-----------5---------8-------8-------7-------|
D|-------------------------------------------------------------|
A|-------------------------------------------------------------|
E|-------------------------------------------------------------|
мы будем к ней готовы всесторонне я буду знать за что я полюблю

E|-------0-----------------------------------0-----------0-----|
B|----6-----6--7--6--------7--6-----------6-----6-----5--------|
G|-7-----------------7--8--------7--6--7-----------6-----------|
D|-------------------------------------------------------------|
A|-------------------------------------------------------------|
E|-------------------------------------------------------------|
             такую же  как ты когда найду
                                                и.т.д

А я ее найду наверняка
Любовь меня достанет все повсеместно
Клянусь тебе что никогда нигде
Ты больше не услышишь обо мне

Припев:
   Dm         E7     A7             Dm   A7
   Лишь в сне во сне в кошмарном сне
   Dm     E7         A7          Dm
   На дне майн либен на самом дне

Когда бы нас не встретила любовь
Я буду знать на что она похожа
Она во всем похожа на тебя
Она уже с рождения моя

Она меня полюбит как и ты
Она сама зайдет ко мне наложе
Возьму ее и в море утоплю
За то что я еше тебя люблю

Припев:
   Майн Либен, майн либен, майн либен е-е  |
   На дне, майн либен на самом дне         |  2р

E|-------0-----------0-----------0---------0-------0-------0---|
B|----6-----6-----6-----6-----6-----6----6---6---6---6---6---6-|
G|-------------------------7-----------7-----------------------|
D|-7-----------7-------------------------------7-------7-------|
A|-------------------------------------------------------------|
E|-------------------------------------------------------------|
  Е - Е - Е - Е                                   Е - Е - Е - Е

E|-----0-------0-------0----------0-----------0-----------0----|
B|---6---6---6---6---6---6-----6-----6-----6-----6-----6-----6-|
G|-7-------7----------------------------7-----------7----------|
D|-----------------7--------7----------------------------------|
A|-------------------------------------------------------------|
E|-------------------------------------------------------------|

E|-------0-----------0-----------0-------|
B|----6-----6-----6-----6-----6-----6----|
G|-------------------------7-----------7-|
D|-7-----------7-------------------------|
A|---------------------------------------|
E|---------------------------------------|

Тональность:

Это должно быть в ТОП-листе! - Топ-лист композиций



Назад
Рекомендуем посмотреть другие песни исполнителя «Агата Кристи»:

  • Комменты Fb ()
  • Комменты ВК



Добавить в Избранное Браузера
Сохранить здесь Очистить


x

0


+
-

+
-

-

Авторизация





Зарегистрироваться

M

Дата и время

  • 19:29:59
     

Социальные ссылки


Наши приложения

  • Muzbank App Play Market
  • Muzbank Amazon App