MUZBANK



A MOST COMPLETE BANK OF MUSIC INFORMATION

МУЗЫКАЛЬНО-ИНФОРМАЦИОННЫЙ БАНК





ААгата Кристи • Сказочная тайга (аккорды и текст - chords & lyrics)


2271

Print

Видео «Сказочная тайга (Агата Кристи)»

Видео клипы к песне подбираются автоматически сайтом youtube. Возможны некоторые несоответствия клипов песне.

↑ Спрятать рекламу ↑






Dm Gm A F D G A Dm

    Dm               E7
Когда я на почте служил ямщиком,
     A                Dm
Ко мне постучался косматый геолог
    B                Dm
И глядя на карту на белой стене
 E7             A
Он усмехнулся мне.
Dm                   E7
Он рассказал, как плачет тайга,
 Gm          A
Без мужика она одинока.
 Dm              E7
Нету на почте у них ямщика,
  Gm                      A
Значит нам туда дорога, значит нам туда дорога.

только соло подприпевное сначала надо играть в
ре-миноре, и только последний раз в Em.

   Dm       Gm      A         F       Dm        G     A     Dm
e|------5-8-6-------5-------6-5-------------5-8-7-----9-----10-|
b|------------------------5------------------------------------|
g|-7--7-----------------6-------------7---7--------------------|

  Такой еще ход:         Соло:
   A7                 Em         Am        H            G
e|-5-5-------------|-------------------------------------------|
b|-----8-8-6-6-5-5-|--8--7---7-8-10-8------7----------7-8-7----|
g|-----------------|-------9-----------9------9--8--9--------7-|
                                           Втор
   Em            A          H7               Em
e|----0-----------------0--------------11-|--12⁄----|
b|-0-------------12-10--------------12----|---------|
g|-------11--12-------------12--11--------|---------|

  Dm               Gm
  Облака в небо спрятались,
    A             F
  Звезды пьяные смотрят вниз
       Dm          G
  И в дебри сказочной тайги
   A
  Падают они.

Dm Gm A F Dm G A Dm

Черные сказки белой зимы
На ночь поют нам большие деревья.
Черные сказки про розовый снег,
Розовый снег даже во сне.
А ночью по лесу идет Сатана
И собирает свежие души,
Новую кровь получила зима.
И тебя она получит, и тебя она получит.

Em Am Н G Em A Н

   Dm       Gm      A         F       Dm        G     A    Dm
E|-------5-8-6-------5-------6-5-------------5-8-7-----9----10-|
B|-------------------------5-----------------------------------|
G|-7--7-----------------6-------------7---7--------------------|
D|-------------------------------------------------------------|
A|-------------------------------------------------------------|
E|-------------------------------------------------------------|

Такой еще ход.         Соло.
   A7                   Em           F/E      B/E          Em7
E|-5-5-------------|-------------------------------------------|
B|-----8-8-6-6-5-5-|-8--7-----7-8-10-8-----7----------7-8-7----|
G|-----------------|-------9------------9-----9--8--9--------7-|
D|-----------------|-------------------------------------------|
A|-----------------|-------------------------------------------|
E|-----------------|-------------------------------------------|

                                           Втор
  Em             A           B7
E|------0---------------------0-----------------11-|----12⁄----|
B|--0----------------12---10----------------12-----|-----------|
G|---------11---12----------------12---11----------|-----------|
D|-------------------------------------------------|-----------|
A|-------------------------------------------------|-----------|
E|-------------------------------------------------|-----------|

    Dm        Gm      A         F      Dm       G     A   Dm
E|---------5-8-6-------5-------6-5-----------5-8-7-----9---10--|
B|---------------------------5---------------------------------|
G|---7---7-----------------6------------7--7-------------------|
D|-------------------------------------------------------------|
A|-------------------------------------------------------------|
E|-------------------------------------------------------------|

  Такой еще ход.         Соло.
  A7                   Em           F/E       B/E          Em7
E|-5-5-------------|-------------------------------------------|
B|-----8-8-6-6-5-5-|-8-7-----7-8-10-8------7----------7-8-7----|
G|-----------------|------9------------9------9--8--9--------7-|
D|-----------------|-------------------------------------------|
A|-----------------|-------------------------------------------|
E|-----------------|-------------------------------------------|

                                           Втор
  Em             A           B7
E|------0---------------------0-----------------11-|----12⁄----|
B|--0----------------12---10----------------12-----|-----------|
G|---------11---12----------------12---11----------|-----------|
D|-------------------------------------------------|-----------|
A|-------------------------------------------------|-----------|
E|-------------------------------------------------|-----------|




Тональность:

Это должно быть в ТОП-листе! - Топ-лист композиций



Назад
Рекомендуем посмотреть другие песни исполнителя «Агата Кристи»:

  • Комменты Fb ()
  • Комменты ВК



Добавить в Избранное Браузера
Сохранить здесь Очистить


x

0


+
-

+
-

-

Авторизация





Зарегистрироваться

M

Дата и время

  • 02:24:58
     

Социальные ссылки


Наши приложения

  • Muzbank App Play Market
  • Muzbank Amazon App
  • Muzbank Bitcoin13igjuWJj2R4cHiyZqP7Q3ggVvfXE9j82Q