MUZBANK


МУЗЫКАЛЬНО-ИНФОРМАЦИОННЫЙ БАНК





ААквариум • Город золотой (аккорды и текст - chords & lyrics)


4155

Print

Видео «Город золотой (Аквариум)»

Видео клипы к песне подбираются автоматически сайтом youtube. Возможны некоторые несоответствия клипов песне.

↑ Спрятать рекламу ↑






 


Am     E7  Am               E7  Am   
Под небом голубым есть город золотой
       Dm        Dm6       F 7      E7
С прозрачными воротами и яркою звездой.
     Am E7      Am            E7     Am
А в городе том сад, все травы да цветы,
   Dm         Dm6      E7          Am
Гуляют там животные невиданной красы.
   A7              Dm
Одно – как желтый огнегривый лев,
    G7           C
Другое – вол исполненных очей.
   Dm                  F   E7
С ними золотой орел небесный,
 Dm                        F E7 Am
Чей так светел взор незабываемый.

А в небе голубом горит одна звезда.
Она твоя, о ангел мой, она твоя всегда.
Кто любит тот любим, кто светел – тот и свят.
Пускай ведет звезда тебя дорогой в дивный сад.

Тебя там встретит огнегривый лев
И синий вол исполненных очей.
С ними золотой орел небесный,
Чей так светел взор незабываемый.
 


e||-----|------------------------------------|--0---------------------------0-----|
B||-----|--1---0---------------0---1---------|--1---3---1---0---1---1---3-------2-|
G||-----|--2-------2---1---2-----------2-----|--2---------------2-----------------|
D||---2-|--2-------------------------------2-|----------2-------------------------|
A||-----|--0---------------0-----------------|--0---------------0-----------------|
E||-----|----------0-------------------------|------------------------------------|
                                                                   
e||--1---0-----------------------1-|--0-----------------------------|   
B||--3-------3---1---0---1---3-----|--0---3---1---3---0-------------|
G||--2-----------------------------|--1-----------------------------|
D||--0-----------------------------|------------------------------2-|
A||--------------------------2-----|--------------------------------|
E||--------------------------------|--0---------------0---4---0-----|

e||------------------------------------|--0---------------------------0-----|
B||--1---0---------------0---1---------|--1---3---1---0---1---1---3-------2-|
G||--2-------2---1---2-----------2-----|--2---------------2-----------------|
D||--2-------------------------------2-|----------2-------------------------|
A||--0---------------0-----------------|--0---------------0-----------------|
E||----------0-------------------------|------------------------------------|

e||--1---0-----------------------1-|--0---------------------------3-|
B||--3-------3---1---0---1---3-----|--0---3---1---0-----------------|
G||--2-----------------------------|--1---------------2-------------|
D||--0-----------------------------|--------------------------------|
A||--------------------------2-----|------------------0---3---0-----|
E||--------------------------------|--0-----------------------------|

e||--3-----------3---3---1---0---1---5---1-|--1-----------1---1---0-------0---3-|
B||--2-------2-------3---------------------|--0-------0---------------4---------|
G||--0---2-----------2---------------------|--0---0-----------------------------|
D||------------------0---------------------|------------------------------------|
A||--0-------------------------------------|------------------3-----------------|
E||----------------------------------------|--3---------------------------------|

e||-------------------10---8---7-----------------------|-------------------10---8---7--------------------||
B||--------------------------------10---10-------9-----|--------------------------------10---10---9---10-||
G||------7---9---10--------------------------7-------7-|------7---9---10--------------------------7---7--||
D||--0---------------------------------------9-------9-|--0---------------------------------------9---10-||
A||----------------------------------------------------|----------------------------------------------0--||
E||-------------------------------------0--------------|-------------------------------------0-----------||
 

Тональность:

Это должно быть в ТОП-листе! - Топ-лист композиций



Назад
Рекомендуем посмотреть другие песни исполнителя «Аквариум»:

  • Комменты Fb ()
  • Комменты ВК



Добавить в Избранное Браузера
Сохранить здесь Очистить


x

0


+
-

+
-

-

Авторизация





Зарегистрироваться

M

Дата и время

  • 20:27:31
     

Социальные ссылки


Наши приложения

  • Muzbank App Play Market
  • Muzbank Amazon App