MUZBANK


МУЗЫКАЛЬНО-ИНФОРМАЦИОННЫЙ БАНК





ААквариум • Город золотой (аккорды и текст - chords & lyrics)


719

Print

Видео «Город золотой (Аквариум)»

Видео клипы к песне подбираются автоматически сайтом youtube. Возможны некоторые несоответствия клипов песне.

↑ Спрятать рекламу ↑






 


Am                    Am
|---------------------|----0---------------0---|
|----1--0--------01---|----1--3-1-0--1--13-----|
|----2----2-1-2-----2-|----2---------2-------2-|
|-2--2----------------|-2------------2---------|
|----0--------0-------|----0---------0---------|
|---------------------|------------------------|

Dm                                 E
|-1---0------------01-|-0----------------------|
|-3-----3--1-01-3-----|----3-1-3---0-----------|
|-2----------2--------|------------1-----------|
|-0----------0--------|------------2-----------|
|---------------------|-0----------------------|
|---------------------|------------0-----------|

Am                    Am
|---------------------|----0---------------0---|
|----1--0--------01---|----1--3-1-0--1--13-----|
|----2----2-1-2-----2-|----2---------2-------2-|
|-2--2----------------|-2------------2---------|
|----0--------0-------|----0---------0---------|
|---------------------|------------------------|

Dm
|-1---0------------01-|-0----------------------|
|-3-----3--1-01-3-----|-0--3-1-0---------------|
|-2----------2--------|------------2-----------|
|-0----------0--------|------------------------|
|---------------------|------------0-----------|
|---------------------|-0----------------------|

|-3-3-----3-3-1-0-1-5-|-1-1-----1-1-0---0-3----|
|---2---2---3---------|---0---0-------3------1-|
|---2-2-----2---------|---0-0----------------0-|
|-----------0---------|------------------------|
|---0-----------------|-----------3-------3----|
|---------------------|---3--------------------|

|---0------10----------------|---0------10------------------|
|--------10--13-12-10-10---9-|--------10--13-12-10-10-9--10-|
|-7----10------------------7-|-7----10----------------7---9-|
|-0------------------------9-|-0----------------------9--10-|
|----------------------------|----------------------------0-|
|--------------------------0-|------------------------0-----|


 Am                 Am
Под небом голубым есть город золотой.
       Dm                           E
С прозрачными воротами и яркою звездой.
       Am                   Am
А в городе том - сад, все травы, да цветы
    Dm                 E          Am
Гуляют там животные невиданной красы.
  A7             Dm
Одно, как желтый огнегривый лев,
    G7          C
Другое - вол исполненный очей.
    Dm                 E
С ними золотой орел небесный
   Dm                     E   Am
Чей так светел взор незабываемый.
А в небе голубом горит одна звезда.
Она твоя, о, ангел мой, она твоя всегда.
Кто любит тот любим, кто светел тот и свят
Пускай ведет звезде тебя дорогой в дивный сад.
Тебя там встретит огнегривый лев
И синий вол, исполненный очей.
С ними золотой орел небесный
Чей так светел взор незабываемый
 

Тональность:

Это должно быть в ТОП-листе! - Топ-лист композиций



Назад
Рекомендуем посмотреть другие песни исполнителя «Аквариум»:

  • Комменты Fb ()
  • Комменты ВК



Добавить в Избранное Браузера
Сохранить здесь Очистить


x

0


+
-

+
-

-

Авторизация





Зарегистрироваться

M

Дата и время

  • 18:42:28
     

Социальные ссылки


Наши приложения

  • Muzbank App Play Market
  • Muzbank Amazon App