MUZBANK


МУЗЫКАЛЬНО-ИНФОРМАЦИОННЫЙ БАНК





ААквариум • Почему Не Падает Небо (аккорды и текст - chords & lyrics)


974

Print

Видео «Почему Не Падает Небо (Аквариум)»

Видео клипы к песне подбираются автоматически сайтом youtube. Возможны некоторые несоответствия клипов песне.

↑ Спрятать рекламу ↑






Играется перебором

     G       A                  D Dsus2/C D7
Он слышал ее имя, он ждал повторенья
     G              A               D Dsus2/C D7
Он бросил в огонь все, что было не жаль
        G                A
Он смотрел на следы ее, жаждал воды ее,
 D             Dsus2/C  D7
Шел далеко в свете звезды ее,
   G            A                  Dsus4 D
В пальцах его снег превращался в сталь

Он встал у реки, чтобы напиться молчанья,
Смыть с себя все, и снова остаться живым
Чтобы голос найти ее, в сумрак войти ее,
Странником стать в долгом пути ее,
В пальцах его вода превращалась в дым

И когда его день кончился молча и странно,
И кони его впервые остались легки,
То пламя свечей ее, кольца ключей ее,
Нежный, как ночь, мрамор плечей ее
Молча легли в камень его руки.

            D        Dsus2/C  D7
E|----------2--------0--------2--------|
B|-------3-----3--------1--------1-----|
G|----2-----------2--------2--------2--|
D|-0-----------------------------------|
A|-------------------------------------|
E|-------------------------------------|

  Dsus4           Dsus2/C
E|---|---|-3-|  E|---|---|-0-|
B|---|---|-3-|  B|---|-1-|---|
G|---|-2-|---|  G|-2-|---|---|
D|---|---|---|  D|---|---|---|
A|-X-|---|---|  A|-X-|---|---|
E|-X-|---|---|  E|-X-|---|---|
   I  II  III      I  II  III

Тональность:

Это должно быть в ТОП-листе! - Топ-лист композиций



Назад
Рекомендуем посмотреть другие песни исполнителя «Аквариум»:

  • Комменты Fb ()
  • Комменты ВК



Добавить в Избранное Браузера
Сохранить здесь Очистить


x

0


+
-

+
-

-

Авторизация





Зарегистрироваться

M

Дата и время

  • 19:11:31
     

Социальные ссылки


Наши приложения

  • Muzbank App Play Market
  • Muzbank Amazon App