MUZBANK


МУЗЫКАЛЬНО-ИНФОРМАЦИОННЫЙ БАНК





ААлиса • Мама (аккорды и текст - chords & lyrics)


1374

Print

Видео «Мама (Алиса)»

Видео клипы к песне подбираются автоматически сайтом youtube. Возможны некоторые несоответствия клипов песне.

↑ Спрятать рекламу ↑






E|-------------------------------------------------------------|
B|-5-7-8-7-5-0-------h-p--1-0---0-----0---0---0---------0---0--|
G|------------0-2-4-2^4^2-2-0-2-0---0-0-2-0-2-0-2-0---0-0-2-0--|
D|----------------------------4---2-----4---4---4-2-4-----4----|
A|-------------------------------------------------------------|
E|-------------------------------------------------------------|

 Em           D                  Em
  На моей земле, видно, так повелось
                D            C           G
  Все не слава богу, все не так, как у всех
   Am        Em         C         G
  То ночами маемся, то засветло пьем
    Am           Em        D      Em
  Стороной взглянуть - и смех и грех  х2

           Am               C          G D Em
           Ой, мама, мама, больно мне...       х2

  На моей земле каждый в правде ослеп.
  Брат на брата прет, сын отца тянет в блуд
  На моей земле вместо колоса серп,
  Вместо солнца дым, вместо воли хомут.    х2

    Припев.
   Am                   C                 G       D        Em
E|-------------------------------------------------------------|
B|-------------------------------------------------------------|
G|-2-------------2--4-5-7------7p5-7p5--------7-------7--------|
D|-2-------------2--4-5-7------7p5-7p5----5-----5-5/4---4---2--|
A|-0--------------------------------------------------------2--|
E|----------------------------------------------------------0--|
      Ой, мама, мама,     больно мне...

  Так за веком век, ни кола, ни двора.
  От тюрьмы - сума на стыке эпох.
  В драке не поможем, но случись война
  Даст бог победим, победим даст бог.    х2

        Припев.

    E5         D5        D5     E5(VII)
  А у земли одно имя - Светлая Русь.
     E5(VII)   D5      C5       G5
  В ноги поклонись, назови ее "мать".
   A5(V)        E5(VII) C5       G5
  Мы ж младенцы все у нее на груди
     A5(V)     E5(VII)    D5       E5(VII)
  Сосунки, щенки, нам ли мамку спасать.  х2

        Припев.

  ; Соло на баяне:

   E5     B5  E5       B5  A5            E5  A5       E5
E|-7----------7-7---------------------------------------------|
B|----10-8-7------10-8-7----7-8--7Н8p7----------------7-8--10-|
G|------------------------9------------9----------9-9---------|
D|---------------------------------------9-7-9-10-------------|
A|------------------------------------------------------------|
E|------------------------------------------------------------|

   E5          B5      E5       B5  A5      E5 A5            E5
E|-7--8-7--------------7-7----------------8-7--12-12-----------|
B|--------10-8-7--8-10-----10-8-7-----7-8------------12-12-----|
G|----------------------------------9----------------------9-9-|
D|-------------------------------------------------------------|
A|-------------------------------------------------------------|
E|-------------------------------------------------------------|

  А на часах уже без пятнадцати три.
  Время, как река, - не воротишь назад.
  А ты хоть раз попробуй оглянись, посмотри,
  Что сумел, что сделал, и кто этому рад.     х2

        Припев.

; Соло на баяне:
   E5          B5      E5          B5  A5       E5 A5     E5
E|-7--8-7--------------7-7---7------------------7--10-8-7----7-|
B|--------10-8-7--8-10-----10-10-8-7-----7-8-10-----------10---|
G|-------------------------------------9-----------------------|
D|-------------------------------------------------------------|
A|-------------------------------------------------------------|
E|-------------------------------------------------------------|

  ; Соло на гитаре:

E|-----------------------------------|
B|-----------------------------------|
G|----------------------------16~-14-|
D|-------------------12Н14Н16--------|
A|----------12Н14Н15-----------------|
E|/12Н14Н15--------------------------|

E|------------------------------|
B|------------------------------|
G|-12-11>(12)>11----16-14-12-11-|
D|---------------12-------------|
A|------------------------------|
E|------------------------------|

E|--------------------------------------------------------|
B|--------------------------------------------------------|
G|-11>(12)>11---------------------------------------------|
D|------------12--/14---14-12------------12-14---14-12----|
A|----------------------------14---12Н14---------------14-|
E|--------------------------------------------------------|

         w/bar
E|----------------------------------------15>(17)-15>(17)-(17)-|
B|-15>(17)~~~--(17)>15p12--------------------------------------|
G|------------------------14-14>(16)>14-12---------------------|
D|-------------------------------------------------------------|
A|-------------------------------------------------------------|
E|-------------------------------------------------------------|

E|-(17)>15p12------------------------------------------|
B|------------15p12-15>(17)>15-15>(17)~~-(17)>15p12----|
G|--------------------------------------------------14-|
D|-----------------------------------------------------|
A|-----------------------------------------------------|
E|-----------------------------------------------------|

E|---------------------------------------------------|
B|--------------------------12--13--12Н13p12-----17~-|
G|-14>(16)>14--12~~-12--14-------------------14------|
D|---------------------------------------------------|
A|---------------------------------------------------|
E|---------------------------------------------------|

Тональность:

Это должно быть в ТОП-листе! - Топ-лист композиций



Назад
Рекомендуем посмотреть другие песни исполнителя «Алиса»:

  • Комменты Fb ()
  • Комменты ВК



Добавить в Избранное Браузера
Сохранить здесь Очистить


x

0


+
-

+
-

-

Авторизация





Зарегистрироваться

M

Дата и время

  • 13:30:11
     

Социальные ссылки


Наши приложения

  • Muzbank App Play Market
  • Muzbank Amazon App