MUZBANK



A MOST COMPLETE BANK OF MUSIC INFORMATION

МУЗЫКАЛЬНО-ИНФОРМАЦИОННЫЙ БАНК







    AAlkaline Trio • Armageddon (аккорды и текст - chords & lyrics)


    385

    Print

    Видео «Armageddon (Alkaline Trio)»

    Видео клипы к песне подбираются автоматически сайтом youtube. Возможны некоторые несоответствия клипов песне.

    ↑ Спрятать рекламу ↑






     
    
    
    The bass in this song is brilliant.
    
    Intro 
    G|-----------------------| 
    D|-----------------------| 
    A|77677767-4444-0000-----| 
    E|-----------------------| 
    
    Intro2 
    G|---------------------------| 
    D|---------------------------| 
    A|77677767-4444-0000-2>------| 
    E|---------------------------| 
    
    Verse 
    G|-----------------------------------| 
    D|--------------------------------79-| 
    A|4444777744447777-0000-5757----79---| 
    E|--------------------------7777-----| 
    
    Verse2
    G|-----------------------------------| 
    D|-----------------------------------| 
    A|4444777744447777-0000-5757----7979-| 
    E|--------------------------7777-----| 
    
    Verse3
    G|-----------------------------------| 
    D|-----------------------------------| 
    A|4444777744447777-00000000-2222222--| 
    E|-----------------------------------| 
    
    
    Chorus
    G|---------------------------| 
    D|---------------------------| 
    A|--7*>-4>-22222222-00000000-|
    E|---------------------------| 
    
    Chorus2
    G|------------------------------------------------|
    D|-------575--------6666----6666------------------|
    A|-7+>-57---750-4444----4444----22222222-00000000-|
    E|------------------------------------------------|
    
    Chorus3
    
    First verse 
    G|---| 
    D|---| 
    A|-4-| 
    E|---| 
    
    
    Bridge1 
    G|------------------------------------------------| 
    D|----------------------------11-11-9-9-11-11-9-9-| 
    A|-44444444-66666666-99999999---------------------| 
    E|------------------------------------------------| 
    
    
    
    Bridge2 
    G|------------------------------------------------| 
    D|-----------------------11-11-9-9------11-9------| 
    A|-44444444-66666666-9999----------9999------11-9-| 
    E|------------------------------------------------| 
    
    
    Bridge3  
    G|--------------------------------------| 
    D|--------------------------------------| 
    A|-44444444-66666666-7777777777777777---| 
    E|--------------------------------------| 
    
    Chorus4
    G|-----------------------------------------------| 
    D|-----99999999----6666----6666------------------| 
    A|--7+>--------4444----4444----22222222-00000000-|
    E|-----------------------------------------------| 
    
    Chorus5
    G|-------------------------------------------| 
    D|-----75----99------------------------------| 
    A|--7>---7777--77777777-4>-22222222-00000000-|
    E|-------------------------------------------|
    
    Order
    Intro x2
    Intro2 x1
    Verse x1
    Verse2 x1
    Verse x1
    Verse3 x1
    Intro x2
    Verse x1
    Verse2 x1
    Verse x1
    Verse3 x1
    Chorus x1
    Chorus2 x1
    Intro x2
    Intro2 x1 
    First verse x1
    Verse2 x1
    Verse x1
    Verse3 x1
    Chorus x2
    Bridge x1
    Bridge2 x1
    Bridge3 x1
    Chorus4 x1
    Chorus5 x1
    End on A|7
     

    Тональность:

    Это должно быть в ТОП-листе! - Топ-лист композиций



    Назад
    Рекомендуем посмотреть другие песни исполнителя «Alkaline Trio»:

    • Комменты Fb ()
    • Комменты ВК



    Добавить в Избранное Браузера
    Сохранить здесь Очистить


    x

    0


    +
    -

    +
    -

    -

    Авторизация





    Зарегистрироваться

    M

    Дата и время

    • 02:01:28
       

    Социальные ссылки


    Наши приложения

    • Muzbank App Play Market
    • Muzbank Amazon App