MUZBANK



A MOST COMPLETE BANK OF MUSIC INFORMATION

МУЗЫКАЛЬНО-ИНФОРМАЦИОННЫЙ БАНК







    AAllister • Somewhere On Fullerton (аккорды и текст - chords & lyrics)


    424

    Print

    Видео «Somewhere On Fullerton (Allister)»

    Видео клипы к песне подбираются автоматически сайтом youtube. Возможны некоторые несоответствия клипов песне.

    ↑ Спрятать рекламу ↑






     
    
    
    Verse 1
    G:---------------------------------|
    D:---------------------------------|
    A:-66------------------------------|x2
    E:---------------------------------|
    
    Pre Chorus
    G:------------------------------------------------------------------|
    D:-----------------------------------------------------886655-------|
    A:------------------66-8-6-5---------------------------------88-----|x1
    E:-4444444466666666----------8-8-6--3-44444444466666666-------------|
    
    Chorus
    G:------------------------------------------------------------------|
    D:------------------------------------------------------------------|
    A:-6666666666666666----------------3333333333333333-----------------|x2
    E:-----------------6666666666666666----------------4444444444444444-|
    
    Verse 2
    G:------------------------------------------------------------------|
    D:------------------------------------------------------------------|
    A:-66666666------------------------66666666-------------------------|x1
    E:---------666666664444444466666666--------66666666444444446--------|
    
    Pre Chorus
    G:------------------------------------------------------------------|
    D:-----------------------------------------------------886655-------|
    A:------------------66-8-6-5---------------------------------88-----|x1
    E:-4444444466666666----------8-8-6--3-44444444466666666-------------|
    
    Chorus
    G:------------------------------------------------------------------|
    D:------------------------------------------------------------------|
    A:-6666666666666666----------------3333333333333333-----------------|x2
    E:-----------------6666666666666666----------------4444444444444444-|
    
    Bridge
    G:----------------------------------|
    D:----------------------------------|
    A:-66----------------------33--11---|x2
    E:---------66------44---------------|
    
    G:----------------------------------|
    D:----------------------------------|
    A:-66666666----------------333-111--|x2
    E:---------6666666644444444---------|
    
    Pre Chorus
    G:------------------------------------------------------------------|
    D:-----------------------------------------------------886655-------|
    A:------------------66-8-6-5---------------------------------88-----|x1
    E:-4444444466666666----------8-8-6--3-44444444466666666-------------|
    
    Chorus/Outro
    G:------------------------------------------------------------------|
    D:------------------------------------------------------------------|
    A:-6666666666666666----------------3333333333333333-----------------|x3
    E:-----------------6666666666666666----------------4444444444444444-|
    
    G:--------------------------------------------------------------------|
    D:--------------------------------------------------------------------|
    A:-6666666666666666----------------3333333333333333----------------6~-|x1
    E:-----------------6666666666666666----------------4444444466666666---|
     

    Тональность:

    Это должно быть в ТОП-листе! - Топ-лист композиций



    Назад
    Рекомендуем посмотреть другие песни исполнителя «Allister»:

    • Комменты Fb ()
    • Комменты ВК



    Добавить в Избранное Браузера
    Сохранить здесь Очистить


    x

    0


    +
    -

    +
    -

    -

    Авторизация





    Зарегистрироваться

    M

    Дата и время

    • 05:14:15
       

    Социальные ссылки


    Наши приложения

    • Muzbank App Play Market
    • Muzbank Amazon App