MUZBANK



A MOST COMPLETE BANK OF MUSIC INFORMATION

МУЗЫКАЛЬНО-ИНФОРМАЦИОННЫЙ БАНК





AAnimal ДжаZ • 7 часов по Фаренгейту (аккорды и текст - chords & lyrics)


421

Print

Видео «7 часов по Фаренгейту (Animal ДжаZ)»

Видео клипы к песне подбираются автоматически сайтом youtube. Возможны некоторые несоответствия клипов песне.

↑ Спрятать рекламу ↑





Em(7)
Брошенный жребий
Не дает покоя мне
Тонкая стрелка
Вновь застыла на нуле
Хлынет песок
Мутный поток
Не оставит и следа
Время не лечит никогда

Chorus:
D7 Em(7)
Я не могу больше ждать
D7 Em(7)
Просто бегу вдоль дороги

Как перевертыш
В океане миражей
Желтой иконой месяц
Царь среди теней
Хлынет песок
Мутный поток
Не оставит и следа
Время не лечит никогда

Я не могу больше ждать
Просто бегу вдоль дороги
Тянется нить - не оборвать
Меня найдут и снимут с гонки


Этот рифф играется во вступлении и куплетах:

Em(7)
e:--------------------------------------------------|
B:--------------------------------------------------|
G:--------------------------------------------------|
D:---2---2x--2---0/2-5--2~--2---2x--2-------0/2-----|
A:---2---2x--2--------------2---2x--2---0/2-----5~--|
E:---0---0x--0--------------0---0x--0---------------|

Em Em7 D7 D7
E:---0---0---2---5---|
B:---0---3---1---7---|
G:---0---0---2---5---|
D:---2---2---0---7---|
A:---2---2---x---5---|
E:---0---0---x---x---|

Тональность:

Это должно быть в ТОП-листе! - Топ-лист композиций



Назад
Рекомендуем посмотреть другие песни исполнителя «Animal ДжаZ»:

  • Комменты Fb ()
  • Комменты ВК



Добавить в Избранное Браузера
Сохранить здесь Очистить


x

0


+
-

+
-

-

Авторизация





Зарегистрироваться

M

Дата и время

  • 11:55:21
     

Социальные ссылки


Наши приложения

  • Muzbank App Play Market
  • Muzbank Amazon App
  • Muzbank Bitcoin13igjuWJj2R4cHiyZqP7Q3ggVvfXE9j82Q