MUZBANK



A MOST COMPLETE BANK OF MUSIC INFORMATION

МУЗЫКАЛЬНО-ИНФОРМАЦИОННЫЙ БАНК





AAnimal ДжаZ • Пуля в небе (аккорды и текст - chords & lyrics)


442

Print

Видео «Пуля в небе (Animal ДжаZ)»

Видео клипы к песне подбираются автоматически сайтом youtube. Возможны некоторые несоответствия клипов песне.

↑ Спрятать рекламу ↑





Вступление:
Am | B* x4

Am B
Я меняю цвет
Am B
С белого на серый
Am B
Пять ступенек вверх
Am B
Не глядя вниз
F Am
И холодна сталь, и значит круг открыт
Am B
Тропами вверх
Am B
Оглядись получше
Am B
Может за тобой
Am B
Вновь следит рассвет
F
Рассвет твой враг, ведь в этом месте

C
Нет веры, нет правды
Am
От Бога помощь не придет
Am
Осталось лишь падать
C
В размокший снег, лицом в лед
C
На вылет на сером
Am
Алеет вечная весна

Последний и первый
Em F
Вас обвенчала тишина
C Em F C
Кого из нас полюбит она
Em F C
Может, на этот раз
Em F
Тебя

Есть такой приказ
Веером на север
И фаланги гор
Сомкнуты за мной
И жалости нет в серебряной реке
Сколько нас ушло
По ее теченью
Теперь настал черед
И она охотится за мной
В ее глазах и в отраженьях

Нет веры, нет правды
От Бога помощь не придет
Осталось лишь падать
В размокший снег, лицом в лед
На вылет на сером
Алеет вечная весна
Последний и первый
Вас обвенчала тишина
Кого из нас полюбит она
Может, на этот раз
Тебя

Проигрыш:
Am | B* x много-много раз, первые 4 раза - только бас-гитара (на концертах в
этом месте Михалыч читает речитатив:«And I can’t see no airplanes…»
или что-то вроде этого…)


Нет веры, нет правды
От Бога помощь не придет
Осталось лишь падать
В размокший снег, лицом в лед
На вылет на сером
Алеет вечная весна
Последний и первый
Вас обвенчала тишина
Кого из нас полюбит она
Может, на этот раз
Меня



* Аккорды для акустической гитары, фактически,
  весь куплет играется следующий рифф:

Am B
e:-------------------------------------|
B:-------------------------------------|
G:-------------------------------------|
D:---7--7-7-7-7--7-7-7-7--7-7-7-8-8-8--|
A:---7--7-7-7-7--7-7-7-7--7-7-7-8-8-8--|
E:---5--5-5-5-5--5-5-5-5--5-5-5-6-6-6--|


Партия бас-гитары [в скобках - для 5-ти струнной]:

Куплет:

Am B
G:-------------------------------------|
D:-------------------------------------|
A:-------------------------------------|
E:---5--5-5-5-5--5-5-5-5--5-5-5-6-6-6--|
B:-------------------------------------|

F
G:---------------------------------------------------|
D:---------------------------------------------------|
A:---------------------------------------------------|
E:---1--1-1-1-1--1--1-1-1-1--1--1-1-1-1--1--1-1-1-1--|
B:---------------------------------------------------|



Припев:

C
G:---------------------------------------------------|
D:---------------------------------------------------|
A:---3--3-3-3-3--3--3-3-3-3--3--3-3-3-3--3--3-3-3-3--|
E:---------------------------------------------------|
B:---------------------------------------------------|

Am
G:---------------------------------------------------|
D:---------------------------------------------------|
A:---------------------------------------------------|
E:---5--5-5-5-5--5--5-5-5-5--5--5-5-5-5--5--5-5-5-5--|
B:---------------------------------------------------|

Em F C
G:-----------------------------------------------------------------|
D:-----------------------------------------------------------------|
A:------------------------------3--3-3-3-3--3-3-3-3--3-3-3-3-3-3---|
E:---0--1--1-1-1-1--1--1-1-1-1-------------------------------------|
B:--[5--6--6-6-6-6--6--6-6-6-6]------------------------------------|

Тональность:

Это должно быть в ТОП-листе! - Топ-лист композиций



Назад
Рекомендуем посмотреть другие песни исполнителя «Animal ДжаZ»:

  • Комменты Fb ()
  • Комменты ВК



Добавить в Избранное Браузера
Сохранить здесь Очистить


x

0


+
-

+
-

-

Авторизация





Зарегистрироваться

M

Дата и время

  • 09:58:10
     

Социальные ссылки


Наши приложения

  • Muzbank App Play Market
  • Muzbank Amazon App