MUZBANK


МУЗЫКАЛЬНО-ИНФОРМАЦИОННЫЙ БАНК





AAnimal ДжаZ • Реквием 2005 (аккорды и текст - chords & lyrics)


563

Print

Видео «Реквием 2005 (Animal ДжаZ)»

Видео клипы к песне подбираются автоматически сайтом youtube. Возможны некоторые несоответствия клипов песне.

↑ Спрятать рекламу ↑





Em | D/f# | G | D/f# - весь 1 и 3 куплет

Пролетая над гнездом
Дом
Загляделся на рассвет
Свет
Исчезающий вдали
Блик
Сотен тысяч сигарет

Gm | F | C7 | F - весь 2й и 4й куплет

Но навсегда забыл весну
И дом, что стал совсем родным -
Лишь дым
И та, чьи руки на плечах -
Лишь страх не остаться одному

Твоя дорога вдаль легка
Как
Будто вовсе слова нет
Нет
И мир, оставленный тобой
А ты пой
Идет к привычному концу

Но навсегда забыл весну
И дом, что стал совсем родным -
Лишь дым
И та, чьи руки на плечах -
Лишь страх не остаться одному

Проигрыш: Em

Em D A* C (Bm)*
Настанет день, погаснут звезды
Em D A* C (Bm)*
В твоем окне
Em D A* C (Bm)*
Настанет день и будет поздно
Em D A* C (Bm)*
Любить сильней

Em D A* C (Bm)*
Ответь дождем холодным, свежим:
Em D A* C (Bm)*
Ну где же ты?
Em D A* C (Bm)*
Куда идем? Твои надежды -
Em D A* C (Bm)*
Всего лишь дым.

Проигрыш: Em | D | A* | C (Bm)*

Этот рифф играется в 1м и 3м куплетах (можно играть без струны G,
но мне кажется, так звучит интереснее)

Em D/f# G D/f#
E|---------------------------------|
B|---0--0-0-0-0-3-3--3---3-3-3--3--|
G|--(0--0-0-0-0-2-2--0---0-0-0--2)-|
D|---------------------------------|
A|---------------------------------|
E|---0----------2----3----------2--|

Этот рифф играется во 2м и 4м куплетах

Gm F C F
E|--------------------------------|
B|--------------------------------|
G|---3--3-3-3-3-2-2--3---3-3-3--2-|
D|--------------------------------|
A|-------------------3------------|
E|---3----------1---------------1-|

Аккорды, используемые в песне:

Em D/f# G Gm F C7 D A* C Bm
E|---0---2---3---3---1---0---2---0---0---2-|
B|---0---3---3---3---1---1---3---0---1---3-|
G|---0---2---0---3---2---3---2---2---0---4-|
D|---2---0---0---5---3---2---0---2---2---4-|
A|---2---0---2---5---3---3---x---0---3---2-|
E|---0---2---3---3---1---x---x---x---x---x-|

Тональность:

Это должно быть в ТОП-листе! - Топ-лист композиций



Назад
Рекомендуем посмотреть другие песни исполнителя «Animal ДжаZ»:

  • Комменты Fb ()
  • Комменты ВК



Добавить в Избранное Браузера
Сохранить здесь Очистить


x

0


+
-

+
-

-

Авторизация





Зарегистрироваться

M

Дата и время

  • 11:32:56
     

Социальные ссылки


Наши приложения

  • Muzbank App Play Market
  • Muzbank Amazon App